Pink panther theme tab

  

Dit is haast de enige goede versie van pink panther op het internet.

-------------------------------------------------------------------------
---------------------------1-0-----------0-------------------------------
------------------------------------0---------3------2-0-----------------
--1-2---4-5---1-2---4-5----------2--------------------------2-0-2--------
-------------------------------------------------------------------------
-------------------------------------------------------------------------

----------------------------------------------------------0----------
---------------------------------1-0-------------0-----------4-------
-------------------------------------------0-------------------------
--1-2--4-5--1-2--4-5-------------------------------------------------
---------------------------------------------------------------------
---------------------------------------------------------------------

--0---------------------------------------------------------------------
-------3-0--------------------------------------------------------------
--------------2-0-----------3-2--3-2--3-2--3-2--0-----------------------
------------------------2-----------------------------------2-0-2-2-----
------------------------------------------------------------------------
------------------------------------------------------------------------

-------------------------------------------
-------------------------------------------
---0-----------------0---------------------
--------2-0-2-2---------2-0-2-2------------
-------------------------------------------
-------------------------------------------

Plaats een reactie