Poesje mauw

Leer poesje mauw op je gitaar spelen. Makkelijk en leuk kinderliedje 
vooral goed om te spelen als beginnende gitarist.

A x02220
E 022100
E7 020100


A E A E7
Poesje Mauw Kom eens gauw Ik heb lekk're mel-lek voor jou
e|---------5----------------0-----------------------------------------------|
B|--5---5----------2---2------------------0----0--2---3---2----0------------|
G|---------------------------------2--2-------------------------------------|
D|--------------------------------------------------------------------------|
A|--------------------------------------------------------------------------|
E|--------------------------------------------------------------------------|

A E7 A
En voor mij rijstebrij ooh wat heerlijk smullen wij
e|---------5-----------0-------5-4-2---0------------------------------------|
B|-5--5----------2---2----------------------3---2---0-----------------------|
G|------------------------------------------------------2-------------------|
D|--------------------------------------------------------------------------|
A|--------------------------------------------------------------------------|
E|--------------------------------------------------------------------------|


Hondje waf, waf waf waf.
Blijf eens van mijn melkje af.
Kom eens hier, aardig dier.
Samen hebben wij plezier.
Meer leuke liedjes

Laat een reactie achter

Je e-mailadres wordt niet gepubliceerd.