Same Soul tab | PVRIS

  

VERSE:

 

Where did your body go...
guitar 1:
E||----2-------0-------5--------|
B||------3-------3-------7------|
G||-----------------------------|x4
D||-----------------------------|
A||-----------------------------|
E||-3~------0~------7~----------|

guitar 2:
    G    Em   Bm
E||---------------------|
B||---------------------|
G||-----------4~--------|x4
D||-5~---2~---4~--------|
A||-5~---2~---2~--------|
E||-3~---0~-------------|


PRE CHORUS 1:
I could have walked by you a thousand times...
guitar 1:
E||----2-------0-------5--------|
B||------3-------3-------7------|
G||-----------------------------|x4
D||-----------------------------|
A||-----------------------------|
E||-3~------0~------7~----------|

guitar 2:
    G    Em   Bm
E||---------------------|
B||---------------------|
G||-----------4~--------|x4
D||-5~---2~---4~--------|
A||-5~---2~---2~--------|
E||-3~---0~-------------|



CHORUS:
I'm just somebody that you used to...
guitar 1:
E||----2-------0-------5--------|
B||------3-------3-------7------|
G||-----------------------------|x4
D||-----------------------------|
A||-----------------------------|
E||-3~------0~------7~----------|

guitar 2:
     G   Em    Bm
E||------------------|
B||------------------|
G||---------44444444-|x4
D||-5555222244444444-|
A||-5555222222222222-|
E||-33330000---------|


VERSE 2:
Where did your heart stay...
guitar 1:
E||----2-------0-------5--------|
B||------3-------3-------7------|
G||-----------------------------|x4
D||-----------------------------|
A||-----------------------------|
E||-3~------0~------7~----------|

guitar 2:
    G    Em   Bm
E||---------------------|
B||---------------------|
G||-----------4~--------|x4
D||-5~---2~---4~--------|
A||-5~---2~---2~--------|
E||-3~---0~-------------|


PRE CHORUS 2:
I think we've lied a thousand lies...
guitar 1:
E||----2-------0-------5--------|
B||------3-------3-------7------|
G||-----------------------------|x4
D||-----------------------------|
A||-----------------------------|
E||-3~------0~------7~----------|

guitar 2:
    G    Em   Bm
E||---------------------|
B||---------------------|
G||-----------4~--------|x4
D||-5~---2~---4~--------|
A||-5~---2~---2~--------|
E||-3~---0~-------------|

guitar 3:
E||-----------------------------------------------------|
B||-----------------------------------------------------|
G||-----------------------------------------------------|x2
D||-----------------------------------------------------|
A||-----------------------------------------------------|
E||--3/7777-7777--3/77777777--3/7777-7777--5~5555-------|


CHORUS:(same as before)


BRIDGE:
Heyy I think we've lived a thousand...
E||---------------------|  |------------------------------------|
B||---------------------|  |------------3-3-3----5-5-5----------|
G||-----------4~---2~---|x2|---4-4-4----------------------6-6-6-|x2
D||-5~---2~---4~---2~---|  |------------------------------------|
A||-5~---2~---2~---0~---|  |-------------------7~---------------| 
E||-3~---0~-------------|  |-3~-------0~----------------5~------|

guitar 2:
    G    Em   Bm   A
E||---------------------|
B||---------------------|
G||-----------4~---2~---|x4
D||-5~---2~---4~---2~---|
A||-5~---2~---2~---0~---|
E||-3~---0~-------------|


END WITH:
I'm just somebody that you used to...
guitar 1:
E||----2-------0-------5--------|
B||------3-------3-------7------|
G||-----------------------------|x4
D||-----------------------------|
A||-----------------------------|
E||-3~------0~------7~----------|

guitar 2:
    G    Em   Bm
E||---------------------|
B||---------------------|
G||-----------4~--------|x4
D||-5~---2~---4~--------|
A||-5~---2~---2~--------|
E||-3~---0~-------------|


THEN:
I think we've lied a thousand...
guitar 1:
E||----2-------0-------5--------|
B||------3-------3-------7------|
G||-----------------------------|x4
D||-----------------------------|
A||-----------------------------|
E||-3~------0~------7~----------|

guitar 2:
     G   Em    Bm
E||------------------|
B||------------------|
G||---------44444444-|x4
D||-5555222244444444-|
A||-5555222222222222-|
E||-33330000---------|



Plaats een reactie