Show Me Love | Robin Schulz TAB

  

Intro: 1x

e|---------------------------------------------------------------------------|
B|---------------------------------------------------------------------------|
G|---7---7---7---7---7---7---2---2---4---4---4---4---4---4---2---2-----------|
D|---------------------------------------------------------------------------|
A|---------------------------------------------------------------------------|
E|-7---7---7---7---7---7---2---2---3---3---3---3---3---3---2---2-------------|

e|---------------------------------------------------------------------------|
B|---------------------------------------------------------------------------|
G|---6---6---6---6---6---6---2---2---4---4---4---4---4---4---2---2-----------|
D|---------------------------------------------------------------------------|
A|---------------------------------------------------------------------------|
E|-5---5---5---5---5---5---2---2---3---3---3---3---3---3---2---2-------------|


Verse: 2x

e|---------------------------------------------------------------------------|
B|---------------------------------------------------------------------------|
G|---4---4---4---4---4---4---4---4---7---7---7---7---7---7---7---7-----------|
D|---------------------------------------------------------------------------|
A|---------------------------------------------------------------------------|
E|-3---3---3---3---3---3---3---3---7---7---7---7---7---7---7---7-------------|

e|---------------------------------------------------------------------------|
B|---------------------------------------------------------------------------|
G|---7---7---7---7---7---7---2---2---4---4---4---4---4---4---2---2-----------|
D|---------------------------------------------------------------------------|
A|-5---5---5---5---5---5-----------------------------------------------------|
E|-------------------------2---2---3---3---3---3---3---3---2---2-------------|


Prechorus: 1x

e|-------------------------------------------|
B|-------------------------------------------|
G|---4---4---4---4---4---4---2---2-----------|
D|-------------------------------------------|
A|-------------------------------------------|
E|-3---3---3---3---3---3---2---2-------------|


Chorus: 2x

e|---------------------------------------------------------------------------|
B|---------------------------------------------------------------------------|
G|---4---4---4---4---4---4---4---4---7---7---7---7---7---7---7---7-----------|
D|---------------------------------------------------------------------------|
A|---------------------------------------------------------------------------|
E|-3---3---3---3---3---3---3---3---7---7---7---7---7---7---7---7-------------|

e|---------------------------------------------------------------------------|
B|---------------------------------------------------------------------------|
G|---6---6---6---6---6---6---6---6---4---4---4---4---4---4---2---2-----------|
D|---------------------------------------------------------------------------|
A|---------------------------------------------------------------------------|
E|-5---5---5---5---5---5---5---5---3---3---3---3---3---3---2---2-------------|


Intro 1x
Verse 2x
Chorus 2x
Intro 3x
Chorus 4x
Intro 1x

 


Plaats een reactie