Sinterklaas is jarig TAB

 
e----------3---0-0-3-2-0---------0---------3-2-0------
B--3-3-3-3---3-----------3---0-1---3-0----------------
G--------------------------2-----------2-2------------
D-----------------------------------------------------
A-----------------------------------------------------
E-----------------------------------------------------
e-----------0----------0-2------3-2-2-2-0----------------
B--3-0-1-3----1----1-3-----3-0-3------------0-3-1--------
G----------------2------------------------2-------2-0----
D--------------------------------------------------------
A--------------------------------------------------------
E------------------------------ en dit heerhaal je steeds

Sinterklaas is jarig!
Ik zet mijn schoen vast klaar.
Licht dat hij hem vol doet met,
ja wist ik het maar.
Hier zet ik wat water
en wat hooi voor 't paard.
Want dat trouwe beestje
is dat heus wel waard.
Als de kleintjes slapen, 
komt de goede Sint;
die de brave kinderen
het allermeest bemint.
het paardje, zwaar beladen,
voert hij met zich voort
en zijn knecht vertelt hem
wat hij heeft gehoord.
Toos is ongehoorzaam; 
Jantje wel eens lui
en de kleine Piet heeft
vaak een boze bui
Ik was laatst ook ondeugend
Of hij dat ook weet?
Ik mag warempel hopen
dat hij het maar vergeet!
Meer leuke liedjes

Laat een reactie achter

Je e-mailadres wordt niet gepubliceerd.