Skyfall

 
Begin With : Cm 
e|-----3--|
b|----4---|
g|---5----|
D|--5-----|
A|-3------|
E|--------|
Intro / Verse :



e|----------------------------------------|
b|-4---4----3---3----4----4----4---4-3----|
g|-5---5----5---5----5----5----5---5-4----| X3
D|-5---5----5---5----5----5----5---5-4----|
A|---3---3--------------------------------|
E|------------4---4----4----4---4--4-3----|
e|------------------------------|
b|-3--3--3--3---4---4---3---3---|
g|-4--4--4--4---5---5---5---5---|
D|-5--5--5--5---5---5---5---5---| X1
A|---------------3---3---3---3--|
E|--3--3--3--3------------------|
Chorus:
(Cm , G# , Fm , G) 2X
Bridge :
(Fm , G , G# , A#) 2X
Meer leuke liedjes

Laat een reactie achter

Je e-mailadres wordt niet gepubliceerd.