Still Got Time | Zayn Malik

  

Riff

e|-1-----------1---------------1---|-------------------------0-------|
B|-------1-----------------x-------|-0-----3-----1-------------------|
G|---------------------------------|---------------------------------|
D|-0-------------------------------|---------------------------------|
A|---------------------------------|-------------0-------------------|
E|---------------------------------|-3-------------------------------|
   1 e + a 2 e + a 3 e + a 4 e + a   1 e + a 2 e + a 3 e + a 4 e + a
         s                 s   s           s                 s
   Dm7                               G           Am7

e|-0-----3-----1-------0-------0---|---------------------------------|
B|---------------------------------|-0-----0-----1-----------1-------|
G|---------------------------------|---------------------------------|
D|---------------------------------|---------------------------------|
A|-3---------------------------3---|-------------0-------------------|
E|---------------------------------|-3-------------------------------|
   1 e + a 2 e + a 3 e + a 4 e + a   1 e + a 2 e + a 3 e + a 4 e + a
         s                     s           s                 s
   C                                 G           Am7

x = dempen
s = staccato


[INTRO]
(aangepast voor op de gitaar)

e|-1-----------1---------------1---|-------------------------0-------|
B|-------1-----------------x-------|-0-----3-----1-------------------|
G|---------------------------------|---------------------------------|
D|-0-------------------------------|---------------------------------|
A|---------------------------------|-------------0-----------0---2---|
E|---------------------------------|-3-------------------------------|
   1 e + a 2 e + a 3 e + a 4 e + a   1 e + a 2 e + a 3 e + a 4 e + a
         s                 s   s           s                 s
   Dm7                               G           Am7

e|-0-----3-----1-------0-------0---|---------------------------------|
B|---------------------------------|-0-----0-----1-----------1-------|
G|---------------------------------|---------------------------------|
D|---------------------------------|---------------------------------|
A|-3---------------------------3---|-------------0-------------------|
E|---------------------------------|-3-------------------------------|
   1 e + a 2 e + a 3 e + a 4 e + a   1 e + a 2 e + a 3 e + a 4 e + a
         s                     s           s                 s
   C                                 G           Am7


[CHORUS]
(Z)
   Dm7
   Just stop lookin' for love
G                 Am7
   Girl, you know you still got time
C
   Girl, you know you still got time
G                 Am7
   Girl, you know you still got...
   Dm7
   Just stop lookin' for love
G  Am7
   You still got time
C
   Girl, you know you still got time
G                 Am7
   Girl, you know you still got time


[VERSE 1]
(Z)
Dm7
This could be something
       G        Am7
if you let it be   something
      C
Don't scare me away
        G            Am7
turning somethings into nothing, babe
Dm7
You're already used
       G          Am7
to the games, babe
C
You play your role,
      G            Am7
and I play the same


[PRE-CHORUS 1]
(Z)
Dm7
   Come give it to me, yea ah yea
G               Am7
   Come give it to me, play by play
C
   I could tell you've been bored all day
              G                   Am7                        Dm7
  'Cuz you're young and you still got time, don't waste your time
( Dm7 )
   We been wasting away, aw yeah
G                Am7
   And no matter what you say, aw yeah
C
   That smile gon' take you places
G                 Am7            n.c.
   And I know you wanna see some faces


[CHORUS]
(Z)
   Dm7
   Just stop lookin' for love
G                 Am7
   Girl, you know you still got time
C
   Girl, you know you still got time
G                 Am7
   Girl, you know you still got...
   Dm7
   Just stop lookin' for love
G  Am7
   You still got time
C
   Girl, you know you still got time
G                 Am7
   Girl, you know you still got time


[VERSE 2]
(PND)
Dm7

                 G          Am7
      I know I'm working my magic
C
      And I know you diggin' my fabric
G Am7                   Dm7
      I'm boyfriend mate - rial
( Dm7 )

G                 Am7
      You said it yourself,
              C
      you dig - ging me
G                      Am7
      And I'd be lying if I said it wasn't
       Dm7
      e - qually (equally, babe)
G               Am7
      A feeling that we both feel
C
      Something that is so real
G           Am7
      But I got to
              Dm7
      let you know
      G   Am7
      slowly
                      C
      Well, it may be truthfully
              G          Am7
      But you just gotta stop looking for it


[PRE-CHORUS 2]
(PND)
Dm7
   Come give it to me, yea ah yea
G               Am7
   Come give it to me, play by play
C
   I could tell you've been bored all day
              G                   Am7                        Dm7
  'Cuz you're young and you still got time, don't waste your time
( Dm7 )
   We been wasting away, aw yeah
G                Am7
   And no matter what you say, aw yeah
C
   That smile gon' take you places
G                 Am7            n.c.
   And I know you wanna see some faces


[CHORUS]
(Z)
   Dm7
   Just stop lookin' for love
G                 Am7
   Girl, you know you still got time
C
   Girl, you know you still got time
G                 Am7
   Girl, you know you still got...
   Dm7
   Just stop lookin' for love
G  Am7
   You still got time
C
   Girl, you know you still got time
G                 Am7
   Girl, you know you still got time


[BRIDGE]
(Z/PND)
                     Dm7
   This could be some - thing, yeah
   G                 Am7
   This could be
   C
   This could be something
          G        Am7
   If you let it be   something
                   Dm7
  (It could be something, yeah) This could be
 G Am7
  (This could be   something, yeah)
          C
   If you let it be something
   G           Am7
   Right now I wanna see ya


[FINAL PRE-CHORUS]
(Z/PND)
Dm7
   Come give it to me, yea ah yea
G               Am7
   Come give it to me, play by play
C
   I could tell you've been bored all day
              G                   Am7                        Dm7
  'Cuz you're young and you still got time, don't waste your time
( Dm7 )
   We been wasting away, aw yeah
G                Am7
   And no matter what you say, aw yeah
C
   That smile gon' take you places
G                 Am7            n.c.
   And I know you wanna see some faces


[CHORUS]
(Z)
   Dm7
   Just stop lookin' for love
G                 Am7
   Girl, you know you still got time
C
   Girl, you know you still got time
G                 Am7
   Girl, you know you still got...
   Dm7
   Just stop lookin' for love
G  Am7
   You still got time
C
   Girl, you know you still got time
G                 Am7
   Girl, you know you still got
n.c.

Plaats een reactie