Artiest: ‘Anouk’

Michel | Anouk

  


Intro:
e|-------0------------0------------0------------0-----|
B|-3---3---3----3---3---3----3---3---3----3---3---3---|
G|---2-------2----2-------2----2-------2----2-------2-|
D|----------------------------------------------------|
A|----------------------------------------------------|
E|----------------------------------------------------|
Verse
e|--------0-----------0-----------0-----0------0------|
B|------3---3-------3---3-------3---3-----3------3----|
G|----2-------2---2-------2---2-------2-----2------2--|
D|--0-------------------------------------------------|
A|--------------0-------------------------------------|
E|--------------------------3-------------------------|
 Repeat 4x

Verse:
Hey michel, how’s life are you ok?
I wonder if you ever think of me
It’s been 9 years since that kiss
I can help but reminisce
Hey michel do you remember
Chorus:
   D                             A                    G
We walked the street to the beat hand in hand you and me  Lees verder… »

Lost | Anouk

  



e |------------------------------------------------------|
B |-------3------------3------------3------------3-------|
G |-----0---0--------0---0--------2---2--------2---2-----|
D |---0-------0----0-------0----0-------0----0-------0---|
A |------------------------------------------------------|
E |-3------------3------------2------------2-------------|
 
 
e |------------------------------------------------|
B |--------3------------3------------3------3------|
G |------0---0--------0---0--------2---2-----------|
D |----2-------2----2-------2----0-------0---------|
A |--3------------3--------------------------------|
E |----------------------------2-------------------|

Lees verder… »

Run Away Together | Anouk

  

F#m
[Verse 1] Bm A Don't you ever try to leave me Bm A I wouldn't know what to do Lees verder... »