Artiest: ‘Demi Lovato’

Warrior | Demi Lovato

  

Cm
[Verse]

Em                        C                  G
This is a story that I have never told
Em                              C                   G
I gotta get this off my chest to let it go Lees verder... »

Heart attack

  

 
CAPO 1
 
C                   D
Putting my defenses up
       Em                    G
‘Cause I don’t wanna fall in love
     C            (stop)
If I ever did that
                           (Em)
I think I’d have a heart attack Lees verder… »

Catch me

  

e|--------------------------------------------|
B|----9---9---9---9----9---9---9---9----------|
G|----9---9---9---9----9---9---9---9----------|
D|--7---7---7---7-----------------------------| 2x
A|-------------------7---7---7---7------------|
E|--------------------------------------------|

e|---------------------------------------------------------------|
B|----5---5---5---5---4---4---4---4---0---0---0---0---0---0---0--|
G|----6---6---6---6---4---4---4---4---6---6---6---6---8---8---8--|
D|----6---6---6---6---4---4---4---4---7---7---7---7---9---9---9--|
A|--4---4---4---4------------------------------------------------|
E|------------------4---4---4---4---5---5---5---5---7---7---7---7|

Lees verder… »

Here we go again (intro)

  

F Dm Bb F
e|-1---------------| |-1--3--5--3--1-3-|-6--5--3--1--3-5-|-1-|
B|----1------------| |-----------------|-----------------|---|
G|-------2--0----0-| x2 |-----------------|-----------------|---|
D|-------------3---| |-----------------|-----------------|---|
A|-----------------| |-----------------|-----------------|---|
E|-----------------| |-----------------|-----------------|---|

Verse Riff:
e|---------------------------------|
B|---------------------------------|
G|-----0-----2-----3-----2-----0---|
D|-3-3---3-3---3-3---3-3---3-3---3-| x4
A|---------------------------------|
E|---------------------------------|

Let it go | Demi Lovato (van FROZEN)

  



[Chorus]

       G
Let it go
       D
Let it go
      Em               C
Can’t hold you back anymore Lees verder... »