Artiest: ‘Guus Meeuwis’

Het is een nacht

  


Em = -0-2-2-0-0-0-
C = -X-3-2-0-1-0-
G = -3-2-0-0-0-3-
D = -X-X-0-2-3-2-
Cadd9 = -X-3-2-0-3-0-

Intro:
“Em” “Cadd9 “G” “D”
e|---------0-------|---------0--|-----------3-----|-------0-2-|
B|-------0---0-----|-------3----|---------0---0---|-----3-----|
G|-----0-------0---|-----0------|-----0---------0-|---2-------|
D|---2-------------|---2--------|---0---0---------|-0---------|
A|-----------------|-3----------|-----------------|-----------|
E|-0---------------|------------|-3---------------|-----------|
“Em” “Cadd9" “G” “D”
e|----------0-----|---------0-|-----------3-----|---------2-|
B|-------0----0---|-------3---|---------0---0---|-----3-----|
G|-----0--------0-|-----0-----|-----0---------0-|---2---2---|
D|---2------------|---2-------|---0---0---------|-0---------|
A|----------------|-3---------|-----------------|-----------|
E|-0--------------|-----------|-3---------------|-----------|

 Em                  C
Je vraagt of ik zin heb in een sigaret
       G                     D
’t is twee uur ’s nachts, we liggen op bed Lees verder… »

Brabant | Guus Meeuwis

  

G   320003
C   x32010
D   xx0232
Em  022000
F   133211
Bm  x24432
INTRO: G | C | D    G | Em | D Lees verder… »