Artiest: ‘Kinderliedjes’

Pagina 5 van 512345

Happy Birthday

  

Vandaag is het mijn verjaardag (Webmaster Jeffrey) en daarom heb ik vandaag voor jullie twee manieren om Happy Birthday op je gitaar te spelen geplaatst.
Jullie weten natuurlijk allemaal wel hoe je happy birthday zingt, maar de minions laten je het in deze video nog even horen 😉

Mocht je dit liedje opzoeken omdat je zelf ook jarig bent,
dan zeg ik bij deze: “GEFELICITEERD!” 😀

Happy Birthday met gitaarakkoorden

[Intro] 

A  D

D                 A
Happy Birthday to You
                  D
Happy Birthday to You
                    G
Happy Birthday dear *NAAM* (van de jarige)
    D          A  D
Happy Birthday to You


Happy Birthday gitaar TAB

e|----------------------------------------|
B|-------------1--0---------------3--1----|
G|-0--0--2--0--------0--0--2--0-----------|
D|----------------------------------------|
A|----------------------------------------|
E|----------------------------------------|

e|-------3--0-------------1--1--0-------------|
B|------------1--1--0---------------1--3--1---|
G|-0--0----------------2----------------------|
D|--------------------------------------------|
A|--------------------------------------------|
E|--------------------------------------------|

 


Op Een Grote Paddestoel | Kinderliedjes

  

D                        A                    D   
op een grote paddenstoel  rood met witte stippen 
D                         A                    D    
zat kabouter spillebeen   heen en weer te wippen Lees verder... »

Twinkle twinkle little star | Kinderliedjes

  

 

e----------0-0------------------------------------------------------0-0--|
b------3-3-----3--1-1-0-0--------3-3-1-1-0-0----3-3-1-1-0-0--------3----3|
g--0-0---------------------2-2-0--------------2--------------2-0-0-------|
d------------------------------------------------------------------------|
a------------------------------------------------------------------------|
E------------------------------------------------------------------------|

e---------------------------------|
b-1-1-0-0-------------------------|
g---------2-2-0-------------------|
d---------------------------------|
a---------------------------------|
E---------------------------------|
Pagina 5 van 512345