Artiest: ‘Lorde’

Pagina 1 van 212

Supercut | Lorde

  

C F Am G
[Verse 1]
      C                          F
In my head, I play a supercut of us
                      Am                           F
All the magic we gave off, all the love we had and lost Lees verder... »

Hard Feelings Loveless | Lorde

  

Capo op 4

G Em C Am
---------------------------------------------------------------------------------------------
                                   Deel 1 - Hard Feelings 
---------------------------------------------------------------------------------------------

[Intro]
Niets aanslaan
(Go back and tell it)


[Verse 1]
                    G                     C
Please could you be tender and I will sit close to you
      Em                                          C
Let's give it a minute before we admit that we're through Lees verder... »

The Louvre | Lorde

  

C Em F
Am G
[Verse 1]
C                                           Em
  Well summer slipped us underneath her tongue
                       F                    Am
Our days and nights are perfumed with obsession Lees verder... »

Green Light | Lorde

  

Capo op 2

Verse          Refrain        Pre-Chorus + Chorus
----------     ----------     -------------------
Em  02200x     D   x0023x     F  13321x
G   32003x     C   x3201x     C  x3201x
C   x3201x     Em  02200x     G  32003x

[Verse 1]
Em                  G                 C 
   I do my makeup in somebody else's car
Em                    G                    C 
   We order different drinks at the same bars Lees verder... »

Royals TAB | Lorde

  

e-----------------------------------------------------------------------|
B-----------------------------------------------------------------------|
G-----------7-7-5-5------------7-7-5-5--------------------7-7-5-5-7-5---|
D-7-7-7-7-7---------7----7-7-7---------7--5-7-5-4---7-7-7-------------7-|
A-----------------------------------------------------------------------|
E-----------------------------------------------------------------------|
e--------------------------------------------------------------------------|
B-------8-7-----8-7------------7------------7-7-7-7------------7-7-7-7-----|
G-7-7-7-----7-7-----9-7--7-7-9---9-7----7-7---------7-7----7-7---------7-7-|
D------------------------------------7-7----------------7-7----------------|
A--------------------------------------------------------------------------|
E--------------------------------------------------------------------------| Lees verder... »
Pagina 1 van 212