Artiest: ‘Mr Probz’

Waves

  

 
 
Capo op 1 
 
INTRO
   Em       D        Bm      C
|-----------------|----------------|
|-------9---------|------4---------|
|---------------8-|--------------6-|
|----10-------8---|----5-------6---| x4
|--8--------6-----|--3-------4-----|
|-----------------|----------------| Lees verder... »

Nothing really matters | Mr Probz

  



Capo op 4

Gsus4
Intro: C Em Am G F C When she's ok, then I'm alright Em When she's awake, I'm up all night Lees verder... »

Waves

  

 

Fm Eb Cm C#

|-----------------|----------------|
|-------9---------|------4---------|
|---------------8-|--------------6-|
|----10-------8---|----5-------6---|
|--8--------6-----|--3-------4-----|
|-----------------|----------------|

Deze tab wordt door het hele liedje gespeeld en de akkoorden blijven ook hetzelfde.

Dit zijn de akkoorden: Lees verder… »