Artiest: ‘Queen’

We will rock you solo

  

Als je een elektrische gitaar hebt, dan kun je distortion
of over drive gebruiken bij dit nummer.

Symbolen :

----------

h - hammer on

p - pull off

b - bend up

r - release bend

() - optional note

E-----------------------------------------------------------------
B-----------------------------------------------------------------
G------------5---5------------2----2-------2---2------------------
D------------5---5------------2----2-------2---2------------------
A------------3---3------------0----0-------0---0------------------
E--------------------------------3-----------3--------------------

Lees verder… »


Bohemian Rhapsody | Queen Tab

  

e|---------------------------------------------------------------------------|
B|---------------------------------------------------------------------------|
G|---------------------------------------------------------------------------|
D|---------------------------------------------------------------------------|
A|---------------------------------------------------------------------------|
E|-5--4-3--------------------------------------------------------------------|
 Lees verder... »

Another One Bites the Dust | Queen

  




Capo op 1

Verse 1:
Em                                                                Am
Steve walks warily down the street, with the brim pulled way down low
Ain't no sound but the sound of his feet, Machine guns ready to go
C                      G
Are you ready, Are you ready for this
Are you hanging on the edge of your seat  Lees verder... »