Artiest: ‘Sinterklaasliedjes’

Pagina 1 van 41234

Wie komt er alle jaren?

  

 

Akkoordenschema:

C / D / D7 / G
C
Wie komt er alle jaren
                     G
Daar weer uit Spanje varen Lees verder… »

Hoor de wind waait door de bomen TAB

  

Hoor de wind waait door de bomen,
hier in huis daar waait de wind.
Zou de goede Sint wel komen,
nu hij het weer zo lelijk vindt?
Nu hij het weer zo lelijk vindt.
Ja hij komt in donkere nachten,
op zijn paardje o zo snel,
als hij wist hoe zeer wij wachten,
ja gewis dan kwam hij wel,
ja gewis dan kwam hij wel....
e-----------------------0-----------------------
B------0----0-3-0---0-1---3-1-0---0-1-----------
G-------0--0------2-------------2-----2-----0---
D--0-0---0------------------------------2-4-----
A-----------------------------------------------
E----------------------------------speel dit 2 x

Lees verder… »

Daar wordt aan de deur geklopt TAB

  

Daar wordt aan de 
E------------------0----------------
B-------3---------------3-----1-----
G-----------------------------------
D-----------------------------------
A-----------------------------------
E-----------------------------------
deur ge - klopt,
E-----------------------------------
B--0--------------------------------
G------------0---------0------------
D-----------------------------------
A-----------------------------------
E-----------------------------------

Lees verder… »

Sinterklaasje bonne, bonne, bonne TAB

  

Sinterklaasje bonne, bonne, bonne
gooi wat in mijn regen-, regentonne,
gooi wat in mijn laarsje,
dank u, Sinterklaasje....
e--------------------------------------------------------------------------------------------
B--1--1--3--3--1--3-1--------1--1--3--3--1--3-1---------------------------3--1---------------
G---------------------3--2----------------------3--2-----3--3--3--0--3--3------3--2--0-------
D--------------------------3-------------------------3----------------------------------3----
A--------------------------------------------------------------------------------------------
E--------------------------------------------------------------------------------------------

Zie ginds komt de stoomboot TAB

  

 

e-|-----------------|-----------------|-----------------|-----------------|
B-|-----------------|-----------------|-----------------|-----------------|
G-|----0--0--4--2--2|--5--------2--0--|----0--0--4-222--|--5--------2—0---|
D-|-0---------------|-----4--4--------|-0---------------|-----4--4--------|
A-|-----------------|-----------------|-----------------|-----------------|
E-|-----------------|-----------------|-----------------|-----------------|
e-|-----------------|-----------------|-----------------|-----------------|
B-|-3--------3------|--3--------------|---------------3-|-----------------|
G-|----2--2-----4--4|-----5--5--4--2--|---0--0-2-4/5----|-4-----5--2------|
D-|-----------------|-----------------|0----------------|----5--------4--5|
A-|-----------------|-----------------|-----------------|-----------------|
E-|-----------------|-----------------|-----------------|-----------------|

e-|-----------------|-----------------|-----------------|-----------------|
B-|-----------------|-----------------|-----------------|-----------------|
G-|----0--0--4--2--2|--5--------2--0--|----0--0--4-222--|--5--------2—0---|
D-|-0---------------|-----4--4--------|-0---------------|-----4--4--------|
A-|-----------------|-----------------|-----------------|-----------------|
E-|-----------------|-----------------|-----------------|-----------------|
e-|-----------------|-----------------|-----------------|-----------------|
B-|-3--------3------|--3--------------|---------------3-|-----------------|
G-|----2--2-----4--4|-----5--5--4--2--|---0--0-2-4/5----|-4-----5--2------|
D-|-----------------|-----------------|0----------------|----5--------4--5|
A-|-----------------|-----------------|-----------------|-----------------|
E-|-----------------|-----------------|-----------------|-----------------|
Pagina 1 van 41234