Artiest: ‘Walk The Moon’

One Foot solo tab | Walk the Moon

  

[Solo]
e|------8--10---12-10-8-|-----8--10---12-10-8---------------------------------|
B|--10------------------|--8--------------------------------------------------|
G|----------------------|-----------------------------------------------------|
D|----------------------|-----------------------------------------------------|
A|----------------------|-----------------------------------------------------|
E|----------------------|-----------------------------------------------------|

Shut Up And Dance | Walk The Moon

  

Capo op 6

[Intro Tab]

E|--------3--------3--------------3---------3--------|
B|-----3--------3--------3-----3---------3--------3--|
G|--4--------5--------5-----4---------2--------2-----|
D|---------------------------------------------------|
A|---------------------------------------------------|
E|---------------------------------------------------|


[Intro]

G G  C C  Em Em 
D D D D


[Verse]

              G         C
Oh don't you dare look back Lees verder... »