Teenage Dirtbag TAB

  


-|--0--------0-----------0---------0--------
-|--0--------0-----------0---------0--------
-|------------------------------------------ X3
-|------------------------------------------
-|----------------2--2------------------0--0
-|-----0--0-----------------0---0-----------
(Fingerpicked)
Her Name is Noelle..............
Her Boyfriends a Dick...........
I feel like Mould...............
-|--0--------0--------0--------0--0------
-|--0--------0--------0--------0--0------
-|--------------------------------------- X2
-|---------------------------------------
-|-----4--4-----0--0-----2--2--------2--2
-|---------------------------------------
And she doesn't know who i am......
And he doesnt know who i am........
How does she know who i am.........
-|--------------------
-|--------------------
-|-1-1-2-2-4-4--------
-|-2-2-2-2-4-4---6---- X3
-|-2-2---------4-----6
-|-----------------4--
Coz Im just a teenage------iron maiden baby
-|-----------------------------
-|-----------------------------
-|-1-1-2-2-4-4-----------------
-|-2-2-2-2-4-4---6-------------
-|-2-2---------4-----6---7---9-
-|-----------------4---5---7---
With me
-|----------
-|----------
-|-1-1-4-4-2
-|-2-2-4-4-2 X8
-|-2-2------
-|----------
Ah yeah yeah
Low E-|-7-5-4-5-2-0

Plaats een reactie