The Way You Used To Do Tab | Queens of the Stone Age

  

Tuning – D G D G B d (Open G)

[Intro]

d|------------------------------|
B|------------------------------|
G|------------------------------|
D|------------------------------| (Guitar 1)
G|---0---0-0-0---0--0---0-0-0---|
D|------------------------------|

d|------------------------------|
B|------------------------------|
G|---0---0-0-0---0--0---0-0-0---|
D|------------------------------| (Guitar 2)
G|------------------------------|
D|------------------------------|

[Verse]

d|-------------------------------------|
B|-------------------------------------|
G|-------------------------------------|
D|-------------------------------------| (Guitar 1)
G|---0h3-0h3---0--0---0h3-0h3---0--0---|
D|-------------------------------------|

d|-------------------------------------|
B|-------------------------------------|
G|-------------------------------------|
D|-------------------------------------| (Guitar 1)
G|---0h3-0h3---0--0---0--0---0-0-0-----|
D|-------------------------------------|

d|-----------------------------|
B|-----------------------------|
G|-----------------------------|
D|---5/12p0--5p3-5/12p0--5p3---| x2 (Guitar 2 sometimes)
G|-----------------------------|
D|-----------------------------|

[Verse Alternate]

d|----------------------------------------|
B|----------------------------------------|
G|----------------------------------------|
D|---5-5-5-5-----------8-8-8-8------------|
G|------------0-0-0-0-----------0-0-0-0---|
D|----------------------------------------|

d|----------------------------------------|
B|----------------------------------------|
G|----------------------------------------|
D|---6h8p6-5------------------------------|
G|-----------0---0--0---0--0---0-0-0------|
D|----------------------------------------|

[Riff 1]

d|---------------------------------|
B|---------------------------------|
G|---------------------------------|
D|---------------------------------|
G|--------5-6-7---------5-7--------|
D|---5--7--------5--5-7------5-----|

d|---------------------------------|
B|---------------------------------|
G|---------------------------------|
D|-------------------------3-------|
G|--------5-6-7-----7p5------5-----|
D|---5--7--------5------5------5---|

[Riff 1 Ending]

d|---------------------------------------------|
B|---------------------------------------------|
G|---------------------------------------------|
D|-------------------------3---------5-5-5-5---|
G|--------5-6-7-----7p5------5----5------------|
D|---5--7--------5------5------5---------------|

[Chorus]

d|------------------------------|
B|------------------------------|
G|--------5-------10------11~---|
D|------------------------------|
G|---12/5----5/10-----5/11------|
D|------------------------------|

d|---------------------------------------|
B|---------------------------------------|
G|---12---12-12-12---12--12---12-12-12---|
D|---------------------------------------|
G|---12---12-12-12---12--12---12-12-12---|
D|---------------------------------------|

d|---------------5--5---3-3-3------------|
B|---------------------------------------|
G|---5---5-5-5---5--5---5-5-5------------|
D|---------------------------------------|
G|---5---5-5-5---5--5---5-5-5------------|
D|---------------------------------------|


[Transition Riff] (after the pause)

d|--------------------|
B|------------14b16---|
G|---12-10------------|
D|---------12---------|
G|--------------------|
D|--------------------|

Plaats een reactie