Thrift shop TAB

 

e|---------------------------10-6--------------------------------------------|
B|---------------------88----------8-----------------------------------------|
G|---------7-5---------------------------------------------------------------|
D|--5---55-------------------------------------------------------------------|
A|---------------------------------------------------------------------------|
E|---------------------------------------------------------------------------|

Chorus:
e|-----------------------------------------------------------------------------|
B|-----------------------------------------------------------------------------|
G|---7-77--5--3----------------7-77--5--3---5-5--------------------------------|
D|---------------5--------555--------------------------------------------------|
A|-----------------------------------------------------------------------------|
E|-----------------------------------------------------------------------------|

e|-----------------------------------------------------------------------------|
B|-----------------------------------------------------------------------------|
G|---7-77--5--3------7-77--5--3------7--7--5--3------=-------------------------|
D|-------------------------------------------------5-5-------------------------|
A|-----------------------------------------------------------------------------|
E|-----------------------------------------------------------------------------|
Bridge (ending) chords:
Gm A# C D F
Meer leuke liedjes

Laat een reactie achter

Je e-mailadres wordt niet gepubliceerd.