We will rock you solo

  

Als je een elektrische gitaar hebt, dan kun je distortion
of over drive gebruiken bij dit nummer.

Symbolen :

----------

h - hammer on

p - pull off

b - bend up

r - release bend

() - optional note

E-----------------------------------------------------------------
B-----------------------------------------------------------------
G------------5---5------------2----2-------2---2------------------
D------------5---5------------2----2-------2---2------------------
A------------3---3------------0----0-------0---0------------------
E--------------------------------3-----------3--------------------

...we will rock you

E-----------------------------------------------------------------
B----14---14h15----15p14-------14-14--15---14--15p14h15p14--------
G----14---14-------14----------14-14--14---14--14------------14---
D----14---14h16----16p14-------14-14--16---14--16p14h16p14---14---
A---(0)------------------------(0)---------------------------(0)--
E-----------------------------------------------------------------

E----17p15--14---------------------------------------------------
B----------------17---15p14------15----15--15p14-----------------
G----------------------------14------------------16p14-----------
D----------------------------16----------------------------------
A----------------------------------------------------------------
E----------------------------------------------------------------

E-----------------------------------------------------------------
B----17--17-14---17b19--19r17---14-------------------14---14h15---
G------------------------------------16b18--r16p14---14---14------
D----------------------------------------------------14---14h16---
A----------------------------------------------------(0)----------
E-----------------------------------------------------------------

E-----------------------------------------------------------------
B---15p14----------14-----15p14--15p14--14-14-----15----14--------
G---14-------------14-----14-----14-----14-14-----14----14--------
D---16p14----------14-----16p14--16p14--14-14-----16----14--------
A------------------(0)--------------------------------------------
E-----------------------------------------------------------------

Herhaal dit laatste riff twee keer

Plaats een reactie