Wonderful Tonight | Eric Clapton

  

   G      C      D      Em
e|-3-|  |-0-|  |-2-|  |-0-|
B|-3-|  |-1-|  |-3-|  |-0-|
G|-0-|  |-0-|  |-2-|  |-0-|
D|-0-|  |-2-|  |-0-|  |-2-|
A|-2-|  |-3-|  |-0-|  |-2-|
E|-3-|  |-0-|  |-0-|  |-0-|

[Intro/Main riff]
(x2)

e|-----------------------------------------------7-8-12-10------------------|
B|----------10b-8-10-------10b-8--------10b-8-10----------------------------|
G|---7---7--------------7--------9---7--------------------------------------|
D|--------------------------------------------------------------------------|
A|--------------------------------------------------------------------------|
E|--------------------------------------------------------------------------|

                                OF

e|------------------------------------------------------------12------------|
B|------------------------------------------------------12-13----15---------|
G|------------14b-12-14-------14b-12----------14b-12-14---------------------|
D|---12---12--------------12---------14---12--------------------------------|
A|--------------------------------------------------------------------------|
E|--------------------------------------------------------------------------|


[Verse]

G                    D
    It’s late in the evening
C                         D
    She’s wondering what clothes to wear
G                   D
    She puts on her make up
C                       D
    And brushes her long blonde hair
C                D
    And then she asks me
G        D         Em
    Do I look alright?
                C           D               G
    And I say yes, you look wonderful tonight

(Main Riff)

G          D
    We go a party
C                D
    And everyone turns to see
G                 D
    This beautiful lady
C                    D
    Is walking around with me
C                 D
    And then she asks me
G           D       Em
    Do you feel alright?
              C             D           G
    And I say yes, I feel wonderful tonight


D          C
    I feel wonderful
       D              G         D         Em
    Because I see the love light in your eyes
            C            D
    And the wonder of it all
                C            D
    Is that you just don’t realize
               G
    How much I love you

(Main Riff)

G                       D   
    It’s time to go home now
C                          D
    And I’ve got an aching head
G                        C
    So I give her the car keys
C                        D
    And she helps me to bed
C                  D
    And then I tell her
G          D          Em
    As I turn out the light
              C                 D              G
    I say my darling, you were wonderful tonight
Em         C                D               G
    Oh my darling, you were wonderful tonight

e|--------------------------------10----------11/12-11/12--10-12-10---------|
B|----------10b-8-10-------10b-8-----12--8-8--------------------------------|
G|---7---7--------------7---------------------------------------------------|
D|--------------------------------------------------------------------------|
A|--------------------------------------------------------------------------|
E|--------------------------------------------------------------------------|

                                OR

e|---------------------------------------11/12-11/12----12------------------|
B|------------------------15-------------------------15----15---------------|
G|------14b-12-14-----14b-----16--12-12-------------------------------------|
D|---12------------12-------------------------------------------------------|
A|--------------------------------------------------------------------------|
E|--------------------------------------------------------------------------|


*******************************************
| b    bend
| /    slide up
*******************************************

Plaats een reactie