Zachtjes gaan de paarde voetjes TAB


e------------------------------0-------------------------------0--------------
B------1-1-1-3-1-0-0-3---3---3---1-----1-1-1-3-1-0-0-3---3---3----1--1--0-----
G--0-0-----------------0---0--------0-0----------------0---0------------------
D-----------------------------------------------------------------------------
A-----------------------------------------------------------------------------
E-----------------------------------------------------------------------------
e-----------------------------------------------------0--0--0-----------------
B-----0--1------------------------------------0--1--3---------3----0--3--1----
G--2-------2--0--0--0----0--2---------0--0--2--------------------2------------
D----------------------3--------3--2------------------------------------------
A-----------------------------------------------------------------------------
E-----------------------------------------------------en dit herhaal je steeds


Zachtjes gaan de paardenvoetjes
Trippel trappel trippel trap
't Is het paard van Sinterklaasje
Stippe stappe stippe stap
En ik droom van Sinterklaas
En zijn zwarte Pieterbaas
En ik droom van Sinterklaas
En zijn zwarte Pieterbaas
Paardje kan de weg wel vinden
Trippel trappel trippel trap
In het held're maneschijntje
Stippe stappe stippe stap
Paardje is nog lang niet moe
Maar ik moet naar bedje toe
Paardje is nog lang niet moe
Maar ik moet naar bedje toe
Zachtjes gaan de paardenvoetjes
Trippel trappel trippel trap
't Is het paard van Sinterklaasje
Stippe stappe stippe stap
En ik droom van Sinterklaas
En zijn zwarte Pieterbaas
En ik droom van Sinterklaas
En zijn zwarte Pieterbaas
 
Meer leuke liedjes

Laat een reactie achter

Je e-mailadres wordt niet gepubliceerd.