Zen Zen Zense | RADWIMPS

  

Capo op 9

[Intro]
e|---------------------14---11----12p11--------------------------------------|
B|----------12----14-----------12-------12-----------------------------------|
G|-------------11----11--11--------------------------------------------------|
D|-9h13p9------------------------------------------------------------------| (x3)
A|---------------------------------------------------------------------------|
E|---------------------------------------------------------------------------|

e|-11h14p11--------------------------14--14--14--14--14--14------------------|
B|----------14-12-14--------12-------12--12--12--12--12--12------------------|
G|-----------------------------11----11--11--11--11--11--11------------------|
D|-------------------9h13---------------------------------------------------|
A|---------------------------------------------------------------------------|
E|---------------------------------------------------------------------------|

e|-------------------11----12----11---14-------------------------------------|
B|-------12----14---------------------------12-------------------------------|
G|----------11----11----11----11---11----11----11----------------------------|
D|-9h13---------------------------------------------------------------------|
A|---------------------------------------------------------------------------|
E|---------------------------------------------------------------------------|

e|-------------------11----12----11------------------------------------------|
B|-------12----14---------------------14----12-------------------------------|
G|----------11----11----11----11---11----11----11----------------------------|
D|-9h13---------------------------------------------------------------------|
A|---------------------------------------------------------------------------|
E|---------------------------------------------------------------------------|

e|-------------------11----12----11---14-------------------------------------|
B|-------12----14---------------------------12-------------------------------|
G|----------11----11----11----11---11----11----11----------------------------|
D|-9h13---------------------------------------------------------------------|
A|---------------------------------------------------------------------------|
E|---------------------------------------------------------------------------|

e|-11h14p11--------------------------14--------------------------------------|
B|----------14-12-14--------12-------12--------------------------------------|
G|-----------------------------11----11--------------------------------------|
D|-------------------9h13---------------------------------------------------|
A|---------------------------------------------------------------------------|
E|---------------------------------------------------------------------------|


************************************

| p  Pull-off
| h  Hammer-on

************************************

Plaats een reactie