Zie de maan schijnt door de bomen TAB

Zie, de maan schijnt door de bomen,
makkers staakt uw wild geraas.
't Heerlijk avondje is gekomen,
't avondje van Sinterklaas.
Vol verwachting klopt on hart,
wie de koek krijgt, wie de gard.
Vol verwachting klopt on hart,
wie de koek krijgt, wie de gard....
e--------------0-----------0-----------------0-----------0----------------
B------1-1-1-3---1-3-3-3-3---3-1-----1-1-1-3---1-3-3-3-3---3-1-1-1--------
G--0-0---------------------------0-0--------------------------------------
D-------------------------------------------------------------------------
A-------------------------------------------------------------------------
E-------------------------------------------------------------------------




 
e--1-1-0---0-0-0---3-0-----------------0-0-0------------------------------
B--------3-------3-----3-1-1-1-1-1-1-3-------3-1-0-0-1--------------------
G-------------------------------------------------------------------------
D-------------------------------------------------------------------------
A-------------------------------------------------------------------------
E-------------------------------------------------------------------------
Meer leuke liedjes

Laat een reactie achter

Je e-mailadres wordt niet gepubliceerd.