Zie ginds komt de stoomboot TAB

  

 

e-|-----------------|-----------------|-----------------|-----------------|
B-|-----------------|-----------------|-----------------|-----------------|
G-|----0--0--4--2--2|--5--------2--0--|----0--0--4-222--|--5--------2—0---|
D-|-0---------------|-----4--4--------|-0---------------|-----4--4--------|
A-|-----------------|-----------------|-----------------|-----------------|
E-|-----------------|-----------------|-----------------|-----------------|
e-|-----------------|-----------------|-----------------|-----------------|
B-|-3--------3------|--3--------------|---------------3-|-----------------|
G-|----2--2-----4--4|-----5--5--4--2--|---0--0-2-4/5----|-4-----5--2------|
D-|-----------------|-----------------|0----------------|----5--------4--5|
A-|-----------------|-----------------|-----------------|-----------------|
E-|-----------------|-----------------|-----------------|-----------------|

e-|-----------------|-----------------|-----------------|-----------------|
B-|-----------------|-----------------|-----------------|-----------------|
G-|----0--0--4--2--2|--5--------2--0--|----0--0--4-222--|--5--------2—0---|
D-|-0---------------|-----4--4--------|-0---------------|-----4--4--------|
A-|-----------------|-----------------|-----------------|-----------------|
E-|-----------------|-----------------|-----------------|-----------------|
e-|-----------------|-----------------|-----------------|-----------------|
B-|-3--------3------|--3--------------|---------------3-|-----------------|
G-|----2--2-----4--4|-----5--5--4--2--|---0--0-2-4/5----|-4-----5--2------|
D-|-----------------|-----------------|0----------------|----5--------4--5|
A-|-----------------|-----------------|-----------------|-----------------|
E-|-----------------|-----------------|-----------------|-----------------|

Plaats een reactie