Zombie TAB

  

INTRO:
Het slagje van het intro moet je uitproberen door ernaar te luisteren.
Clean:
e Cmaj7 G D
e-|-0-----0-----3-----2
B-|-0-----0-----0-----3
G-|-0-----0-----0-----2
D-|-2-----2-----0-----0
A-|-2-----3-----2-----0
E-|-0-----------3-----2
D kun je ook als x00232 spelen.
CHORUS:
e-|------------------------------------------------------------------|
B-|------------------------------------------------------------------|
G-|------------------------------------------------------------------|
D-|--2-2-2-2-2-2-2-2-2-2-2-2-2-2-2-2---------------------------------|
A-|--2-2-2-2-2-2-2-2-3-3-3-3-3-3-3-3-2-2-2-2-2-2-2-2-0-0-0-0-0-0-0-0-|
E-|----------------------------------3-3-3-3-3-3-3-3-2-2-2-2-2-2-2-2-|
Speel de laatste keer een e (x22xxx) en hou die aan tot het eind.

VERSE:
Het vers start met een mini-solo:
e-|--7h8--5h7--3h5--2h3p2-------|
B-|-----------------------3-3-0-|
G-|-----------------------------|
D-|-----------------------------|
A-|-----------------------------|
E-|-----------------------------|

 

SOLO:
 
e-|--7h8--5-7--7-7-7-7h8--5-7--7-7-7-7h8--5-7--7-7-7-7h8--5-7--|
B-|------------------------------------------------------------|
G-|------------------------------------------------------------|
D-|------------------------------------------------------------|
A-|------------------------------------------------------------|
E-|------------------------------------------------------------|
|-Chorus-chords from here
e-|--2-2-2-2h3--0-2--2-2-2-2h3--0-2--2-2-2-2h3--0-2--2-0--0-2--|
B-|------------------------------------------------------------|
G-|------------------------------------------------------------|
D-|------------------------------------------------------------|
A-|------------------------------------------------------------|
E-|------------------------------------------------------------|
e-|--5--5--5-7--7-5-5-5-7--7-5-5-3-2-2--2-0-0--|
B-|--------------------------------------------|
G-|--------------------------------------------|
D-|--------------------------------------------|
A-|--------------------------------------------|
E-|--------------------------------------------|
e-|--2-2-2-3--0-2--2-2-2-3--0-2--2-2-2-3--0-2--2-0--0--|
B-|----------------------------------------------------|
G-|----------------------------------------------------|
D-|----------------------------------------------------|
A-|----------------------------------------------------|
E-|----------------------------------------------------|
 

ORDER:
Intro (1x)
Chorus (2x)
Verse (1x)
Chorus (3x)
Verse (1x)
Chorus (4x)
Solo (1x)

Tip:
ALs je het wilt laten klinken alsof er ook een bassist mee speelt speel dan dit:
Distorted
e-|------------------------------------------------------------------|
B-|------------------------------------------------------------------|
G-|------------------------------------------------------------------|
D-|--2-2-2-2-2-2-2-2-2-2-2-2-2-2-2-2---------------------------------|
A-|--2-2-2-2-2-2-2-2-3-3-3-3-3-3-5-3-2-2-2-2-2-2-2-2-0-0-0-0-0-0-0-0-|
E-|--0-0-0-0-0-0-3-0-----------------3-3-3-3-3-3-5-3-2-2-2-2-2-2-3-2-|
Speel de laatste keer dit akkoord x22xxx.
Speel dit in plaats van de Chorus.

Wat gespeeld wordt op de bas tijdens de chorus:
e-----------------------------------------------------------------|
B-----------------------------------------------------------------|
G-----------------------------------------------------------------|
D-----------------------------------------------------------------|
A-----------------3-3-3-3-3-3-5-3---------------------------------|
E-0-0-0-0-0-0-3-0-----------------3-3-3-3-3-3-5-3-2-2-2-2-2-2-3-2-|

Plaats een reactie