Drinkee | Sofi Tukker TAB

[Main riff]  
e|---------------------------------------------------------------------------|
B|---------------------------------------------------------------------------|
G|----------------------------------------------7----5-----------------------|
D|--------7----7--5----7---7-------7---5----7--------------------------------|
A|---------------------------------------------------------------------------|
E|---------------------------------------------------------------------------|

e|---------------------------------------------------------------------------|
B|---------------------------------------------------------------------------|
G|---------------------------------------------------------------------------|
D|---5-5h7--7----------7-----------5-----------------------------------------|
A|------------------------5--7-----------------------------------------------|
E|---------------------------------------5-----------------------------------|
 

************************************

| h  Hammer-on

************************************
Meer leuke liedjes

Laat een reactie achter

Je e-mailadres wordt niet gepubliceerd.