Goodbye

4/4

D : x-x-0-2-3-2
Dsus2 : x-x-0-2-3-0
G : 3-2-0-0-0-3
G+5 : 3-2-0-0-0-0
A : x-0-2-2-2-0

Barré-akkoorden:

D : x-5-7-7-7-5
G : 3-5-5-4-3-3
A : 5-7-7-6-5-5

\ : slide down
x : muted
… : fade out

 
Intro:

e:--------------|-------------------|------------------|------------------|
b:--------------|-------------------|------------------|------------------|
g:--5--5-3-5-7--|--3--3-3--3-3-3-5--|------------------|-----------5-5-5--|
d:--5--5-3-5-7--|--3--3-3--3-3-3-5--|--7-7-7-7--7-7-8--|--3-3-3-3--5-5-5--|
a:--3--3-1-3-5--|--1--1-1--1-1-1-5--|--7-7-7-7--7-7-8--|--3-3-3-3--3-3-3--|
E:--------------|-------------------|--5-5-5-5--5-5-6--|--1-1-1-1---------|

e:--------------|-------------------|------------------|------------------|
b:--------------|-------------------|------------------|------------------|
g:--5--5-3-5-7--|--3--3-3--3-3-3-5--|------------------|-----------5------|
d:--5--5-3-5-7--|--3--3-3--3-3-3-5--|--7-7-7-7--7-7-8--|--3--------5------|
a:--3--3-1-3-5--|--1--1-1--1-1-1-5--|--7-7-7-7--7-7-8--|--3--------3------|
E:--------------|-------------------|--5-5-5-5--5-5-6--|--1---------------|

e:--------------|-------------------|------------------|------------------|
b:--------------|-------------------|------------------|------------------|
g:--5--5-3-5-7--|--3--3-3--3-3-3-5--|------------------|-----------5-5-5--|
d:--5--5-3-5-7--|--3--3-3--3-3-3-5--|--7-7-7-7--7-7-8--|--3-3-3-3--5-5-5--|
a:--3--3-1-3-5--|--1--1-1--1-1-1-5--|--7-7-7-7--7-7-8--|--3-3-3-3--3-3-3--|
E:--------------|-------------------|--5-5-5-5--5-5-6--|--1-1-1-1---------|

(Heavy distortion)
e:--------------|-------------------|------------------|------------------|
b:--------------|-------------------|------------------|------------------|
g:--5--5-3-5-7--|--3--3-3--3-3-3-5--|------------------|-----------5-5-5--|
d:--5--5-3-5-7--|--3--3-3--3-3-3-5--|--7-7-7-7--7-7-8--|--3-3-3-3--5-5-5--|
a:--3--3-1-3-5--|--1--1-1--1-1-1-5--|--7-7-7-7--7-7-8--|--3-3-3-3--3-3-3--|
E:--------------|-------------------|--5-5-5-5--5-5-6--|--1-1-1-1---------|

e:--------------|-------------------|------------------|------------------|
b:--------------|-------------------|------------------|------------------|
g:--5--5-3-5-7--|--3--3-3--3-3-3-5--|------------------|-----------5-5-5--|
d:--5--5-3-5-7--|--3--3-3--3-3-3-5--|--7-7-7-7--7-7-8--|--3-3-3-3--5-5-5--|
a:--3--3-1-3-5--|--1--1-1--1-1-1-5--|--7-7-7-7--7-7-8--|--3-3-3-3--3-3-3--|
E:--------------|-------------------|--5-5-5-5--5-5-6--|--1-1-1-1---------|

e:--5…----------|
b:--7…----------|
g:--7…----------|
d:--7…----------|
a:--5…----------|
E:--------------|
 
|D   Dsus2 |G   G+5  |D   Dsus2 |A        |
|D   Dsus2 |G   G+5  |D   Dsus2 |A        |
(Dit stuk wordt ook tijdens het couplet gespeeld)
 
D           G
Here by I return your love
      D             A
I just wonna give it back
D G  D A
I am fading
D                  G             D         A
The silence can be beautiful but also very cold
   D                         G                D   A
But somewhere out there there is a place where I belong
 
 
     D   G     D A
Cause one thing I know
D                         G                D   A
Somewhere out there there is a place where I belong
D G D A
Goodbye
   D                         G               D   A
But somewhere out there there’s a place where I belong
D G D A
Goodbye
   D                         G               D   A
But somewhere out there there’s a place where I belong
 
(Intro)
 
The choises can be hard to make
Is it luck or is it love
I am waiting
I’m waiting for the voice inside me to tell me what I’m not
But somewhere out there there’s a place where I belong
 
Cause one thing I know
Somewhere out there there’s a place where I belong
Goodbye
But somewhere out there there’s a place where I belong
Goodbye
But somewhere out there there’s a place where I belong
 
|D    |D    |D    |D    |
 

D
e:--------------------------------------------------
b:--------------------------------------------------
g:--------------------------------------------------
d:--------------------------------------------------
a:--5-x-5-x-5-x-5---8-7-8----5-x-5-x-5-x-5---8-7-8--
E:--------------------------------------------------

D
e:--------------------------------------------------
b:--------------------------------------------------
g:--------------------------------------------------
d:--------------------------------------------------
a:--5-x-5-x-5-x-5---8-7-8----5-x-5-x-5-x-5-8-8-8-8--
E:--------------------------------------------------

D
e:--------------------------------------------------
b:--------------------------------------------------
g:--------------------------------------------------
d:--------------------------------------------------
a:--5-x-5-x-5-x-5---8-7-8----5-x-5-x-5-x-5---8-7-8--
E:--------------------------------------------------

D
e:--------------------------------------------------
b:--------------------------------------------------
g:--------------------------------------------------
d:--------------------------------------------------
a:--5-x-5-x-5-x-5---8-7-8----5-x-5-x-5-x-5---5\-----
E:--------------------------------------------------

Cause one thing I know
Somewhere out there there's a place where I belong
Goodbye
But somewhere out there there's a place where I belong
Goodbye
But somewhere out there there's a place where I belong


Outro:
e:--------------|-------------------|------------------|------------------|
b:--------------|-------------------|------------------|------------------|
g:--5--5-3-5-7--|--3--3-3--3-3-3-5--|------------------|------------------|
d:--5--5-3-5-7--|--3--3-3--3-3-3-5--|--7-7-7-7--7-7-8--|--3-3-3-3---------|
a:--3--3-1-3-5--|--1--1-1--1-1-1-5--|--7-7-7-7--7-7-8--|--3-3-3-3---------|
E:--------------|-------------------|--5-5-5-5--5-5-6--|--1-1-1-1---------|
 
 
Als er boven een stukje geen akkoorden staan gaat het hetzelfde als een stukje daarvoor.
Meer leuke liedjes

Laat een reactie achter

Je e-mailadres wordt niet gepubliceerd.