Oh denneboom TAB

 
Oh denneboom, oh denneboom.
wat zijn je takken wonderschoon.
ik heb je laatst in 't bos zien staan.
toen zaten er geen kaarsjes aan.
Oh denneboom, oh denneboom.
wat zijn je takken wonderschoon.
e|-----0-0-0---|---2-4-4-4---|---4-2-4-5---|-----2-0-0---|
B|---0---------|-------------|-------------|---4---------|
G|-------------|-------------|-------------|-------------|
D|-------------|-------------|-------------|-------------|
A|-------------|-------------|-------------|-------------|
E|-------------|-------------|-------------|-------------|
e|-----0-0-0---|---2-4-4-4---|---4-2-4-5---|-----2-0-0---|
B|---0---------|-------------|-------------|---4---------|
G|-------------|-------------|-------------|-------------|
D|-------------|-------------|-------------|-------------|
A|-------------|-------------|-------------|-------------|
E|-------------|-------------|-------------|-------------|
e|---7-7-4-9---|--7-7-5-5----|---5-5-2-7---|--5-5-4-4----|
B|-------------|-------------|-------------|-------------|
G|-------------|-------------|-------------|-------------|
D|-------------|-------------|-------------|-------------|
A|-------------|-------------|-------------|-------------|
E|-------------|-------------|-------------|-------------|
Note: de nieuwe spelling is dennenboom, maar je zingt denneboom.
Meer leuke liedjes
1 reactie
  1. b zegt

    hoi

Laat een reactie achter

Je e-mailadres wordt niet gepubliceerd.