This Girl | Kungs VS Cookin’ On 3 Burners TAB

Opmerking: De noten tussen haakjes zijn optioneel. In het Main Riff zijn twee eindes mogelijk, zelf kun je horen welk einde je moet gebruiken.

 [Main Riff]                  [Ending 1]        [Ending 2]
e|----(8)-11-(8)----------|-----------------|----------------|
B|-----9------9-----8~----|-----------------|----------------|
G|-----8------8-----8~----|-----------------|----------------|
D|---(10)---(10)---(8~)---|--------8-8h10-8-|-------8------8-|
A|-8--(8)----(8)---(6~)---|-8-8h10----------|8-8h10---8h10---|
E|------------------------|-----------------|----------------|

 Trumpet
   [Verses]
e|-----3-----|
B|-4-4---4-6-|
G|-----------|
D|-----------|
A|-----------|
E|-----------|

 [Part 1]                         [Part 2]
e|---------------------3-----|    |----------------------3------------------------3-----|
B|-6--6-4-6-6-6-4--4-4---4-6-|    |-6-6-6-6-6-6-6-4--4-4---4-6--6--66-6-66-4--4-4---4-6-|
G|---------------------------| 2x |-----------------------------------------------------|
D|---------------------------|    |-----------------------------------------------------|
A|---------------------------|    |-----------------------------------------------------|
E|---------------------------|    |-----------------------------------------------------|

 (When the Beat Drops)
e|--------------------3---------------------------3-----|
B|-6--6--6-6-6-4--4-4---4-6--6-6-6-6-6-6-6-4--4-4---4-6-|
G|------------------------------------------------------|
D|------------------------------------------------------|
A|------------------------------------------------------|
E|------------------------------------------------------|

e|----6----------------3---------------------------3-----|
B|-6-6-6--6-6-6-4--4-4---4-6--6-6-6-6-6-6-6-4--4-4---4-6-|
G|-------------------------------------------------------|
D|-------------------------------------------------------|
A|-------------------------------------------------------|
E|-------------------------------------------------------|

e|-------------------3---------------------------3-----|
B|-6--66-6-66-4--4-4---4-6--6-6-6-6-6-6-6-4--4-4---4-6-|
G|-----------------------------------------------------|
D|-----------------------------------------------------|
A|-----------------------------------------------------|
E|-----------------------------------------------------|


************************************

| (n)  Ghost note
| h    Hammer-on
| ~    Vibrato  

************************************
Meer leuke liedjes

Laat een reactie achter

Je e-mailadres wordt niet gepubliceerd.