Am I Wrong | Nico, Vinz TAB

e|----------------------------------------------------------------------------|
B|----------------------------------------------------6-----------------------|
G|------------5--------5-----------------10---------7-------------------------|
D|----------5----------6--------------10----------8---------------------------|
A|--------3----------6--------------8-----------8-----------------------------|
E|-----------------4--------------------------6-------------------------------|

Je kunt het ook als akkoorden spelen:

e-------3----------------------8---------
B-------4-------4--------------9--------6
G-------5-------5--------------10-------7     
D-------5-------6--------------10-------8
A-------3-------6--------------8--------8
E---------------4-----------------------6

 

Meer leuke liedjes

Laat een reactie achter

Je e-mailadres wordt niet gepubliceerd.