Ayo technology

verse & refrein:
e|---7------------5--------------3------------------------|
B|---7------------5--------------3------------------------|
G|---7------------6--------------4------------------------|
D|---9------------7--------------5------------------------|
A|---9------------7--------------5------------------------|
E|---7------------5--------------3------------------------|

na eerste verse:
e|-------------------------------------------------------|
B|-------------------------------------------------------|
G|-------------------------------------------------------|
D|-----7-/-9--------9-9----------------------------------|
A|-----7-/-9----7s9-----9/7------------------------------|
E|-------------------------------------------------------|

op het stuck met 'she wants it...'
e|-----------------------------------------------------------------------|
B|----------12--10--12----12--10--12------12--10--12-----12--10--12------|
G|-------------------------------------7---------------7-----------------|
D|-----7/9--------------9------------------------------------------------|
A|-----------------------------------------------------------------------|
E|-----------------------------------------------------------------------|
Meer leuke liedjes

Laat een reactie achter

Je e-mailadres wordt niet gepubliceerd.