‘Rock’ Categorie

Pagina 3 van 1412345...Laatste »

Mannish boy

  

 
STANDARD TUNING
here is one way you can play it
------------------------------|
------------------------------|
------7-----5-----------------|
--7---7--7--5--7--------------|
--7---5--7--3--7--------------|
--5---5--5-----5--------------|

it can also be played like this
------------------------------|
------------------------------|
-------7-----5h6--------------|
----7--7--7--5h6--------------|
----0-----0-------------------|
------------------------------|

Honky Tonk

  

 
Capo on first fret
If played without a capo all notes will sound 1/2 step flat
when compared to the recording.
B=bend up 1/2 step
/=slide
verse#1
E
------------------|
------------------|
------------------|
------------------|
---2---4----2---4-|
-0---0----0---0---|
A
-----------------|
-----------------|
-----------------|
---2---4---5---4-|
-0---0---0---0---|
-----------------|

Lees verder… »

Wake me up when september ends | Green Day

  

C – |x32010| Em – |022000|
Cm – |x35543| Bm – |x24432|
G – |3×0033| D – |xx0232|
G/Gb – |200033|

e| |----0-----0-----| e| |----------------| ||
B| |----1-1---1---1-| B| |----5-----5-----| ||
G| |--0-------0-----| G| |----5-5---5---5-| ||
D| |----------------| D| |--5-------5-----| ||
A| |3-------3-------| A| |3-------3-------| ||
E| |----------------| E| |----------------| ||
 ||
In Verse 1, playing the bar chord version of the ||
C chord makes it much easier to transition to ||
the Cm chord that follows it. ||

Lees verder… »

I will wait

  
 
 
 
CAPO ON 1ST FRET
 
Em2    [0 2 2 0 3 0]
 
G2      [3 2 0 0 1 3]
 
    Intro
 
Am    Em2    C  F  C  G    x2
 
    Verse
 
C
I came home
         F
Like a stone
             C              G2
And I fell heavy into your arms Lees verder… »

Good vibrations | The Beach Boys

  

 

Capo 1

Bass:
 Dm C Bb A
e|---------------------------------------------------------------------|
B|---------------------------------------------------------------------|
G|---------------------------------------------------------------------|
D|--7---7-----------5---5-----------3---3-----------2---2--------------|
A|----5----5-7-8------3----3-5-7------1----1-3-5------0----0-2-4-------|
E|---------------------------------------------------------------------|
 Dm C Bb A
e|---------------------------------------------------------------------|
B|---------------------------------------------------------------------|
G|---------------------------------------------------------------------|
D|--7---7-----------5---5-----------3---3-----------2---2--------------|
A|---5-----5-7-8-----3-----3-5-7-----1-----1-3-5-----0-----1-0---------|
E|-------------------------------------------------------------3-1-0---|
Dm                      C
 I, I love the colorful clothes she wears,
        Bb                              A
And the way the sunlight plays upon her hair
Dm                     C
 I hear the sound of a gentle word
       Bb                                      A   C
On the wind that lifts her perfume through the air  Lees verder… »
Pagina 3 van 1412345...Laatste »