‘Liedjes’ Categorie

Pagina 1 van 15912345...Laatste »

Ill Try | Riverdale Cast

  

C Am F
G Csus4
[Intro]
C    Am  F

[Verse 1]
        C
Can you hear me? 
                                       Am
Am I drowned out in the crowd? Are you listening?  Lees verder... »

You Dont Know | Katelyn Tarver

  

Capo op 1

F Am G Cmaj7
[Intro]
F Am Cmaj7 G

[Verse]
F                             Am         Cmaj7
I know you've got the best intentions
                                        G
Just trying to find the right words to say Lees verder... »

Sweet Creature | Harry Styles

  

G C Bm
D Am Em
[Intro]
G C Bm G
G C Bm G
G C Bm G

[Verse 1]
  G  C   Bm G  
Sweet creature
 G           D            C               G
Had another talk about where it's going wrong Lees verder... »

Slow Hands | Niall Horan

  

Verse          Chorus         Bridge  
----------     ----------     -------------
C   x3201x     F   13321x     Fmaj7  x33210 
Am  x0221x     G   32003x     Gsus2  3x0013
F   13321x     Am  x0221x     E7     xx2434
G   32003x     E   02210x     Am     x02210


[Intro]

e|--------------------------------------------------|
B|-------------------------------8------------------|
G|---7/9--7--5--------5--5/7--------5---------------|
D|-----------------7----------------------5h7p5-----|x2
A|----------------------------------------------7---|
E|--------------------------------------------------|
/ = slide up
h = hammer-on
p = pull-off

C  Am  C  Am


[Verse 1]
C                             Am                                             
  We should take this back to my place
C                               Am
  That's what she said right to my face Lees verder... »

Father And Son | Cat Stevens

  

G D C Am7
Em Am Bm7 Bm
INTRO: 

let ring-------|
e|-----------3-----5--|
B|0--001--------------|
G|0--000--5-----5-----|
D|0--002--------------| x3
A|--------------------|
E|--------------------|


[Father]

         G              D             C                 Am7
It's not time to make a change, just relax and take it easy
             G                 Em
You're still young that's your fault Lees verder... »
Pagina 1 van 15912345...Laatste »