‘Liedjes’ Categorie

Pagina 7 van 174« Eerste...56789...Laatste »

Dynamite | Sigrid

  

Capo op 1

F C Am
G Dm
[Intro] 

F C Am 2x

[Verse]
F                C          Am  
Don't know where I am with you
F                    C          Am       
Forgetting time and space with you Lees verder... »

Chinatown | Liam Gallagher

  

Capo op 2

Akkoorden

---------
F  1332xx
C  x3201x
G  32003x

[Intro]

    F               C               F               C
e|-------------------------------|-----------------------------------|
B|----------------------------1--|-----------------------------------|
G|------2-------------0----------|------2---------------0------------|
D|----3-----2------------2-------|----3-----2-------0h2---2---0h2----|
A|--------------3-----------3----|--------------3-----------------3--|
E|--1-----1---------0------------|--1-----1--------------------------|
 Lees verder... »

Surefire | John Legend

  

F#m D A6
A Dm7
[INTRO]
F#m  D  A6
F#m  D  A6

[VERSE]
F#m           D                     A
 Can you just stay through the night?
F#m            D           A
 Turn down the bed and the blinds Lees verder... »

Tupelo | Jason Isbell

  

Capo op 2

G C Am Em
D Dsus2 Bm
[Intro/Lick]

e|-----------------------------------------|
B|--3h5--3------0--------------------------|
G|---------2/4-----42p0-----0---2p0------0-|
D|------------------------0----------2p0---|
A|-----------------------------------------|
E|-----------------------------------------|
 Lees verder... »

Wild Thoughts | DJ Khaled

  
C Cm Gm Fm
[Intro: DJ Khaled]
C
Another one
Cm
We The Best music
DJ Khaled

[Verse 1: Rihanna]
Fm
I don't know if you could take it
Know you wanna see me nakey, nakey, naked Lees verder... »
Pagina 7 van 174« Eerste...56789...Laatste »