‘Gitaartabs’ Categorie

Pagina 1 van 2412345...Laatste »

One Foot solo tab | Walk the Moon

  

[Solo]
e|------8--10---12-10-8-|-----8--10---12-10-8---------------------------------|
B|--10------------------|--8--------------------------------------------------|
G|----------------------|-----------------------------------------------------|
D|----------------------|-----------------------------------------------------|
A|----------------------|-----------------------------------------------------|
E|----------------------|-----------------------------------------------------|

Leftovers tab | Dennis Lloyd

  

[Riff die je het hele liedje hoort]
    Em          G                 Am          C        D
e|--------0--7--------3--5--3--0--------0--8-----------------2------------------|
B|-----0-----7-----3-----------------------8--------1-----------3---------------|
G|--------------0--------------------2-----------0--------2---------------------|
D|--2--------------------------------------------------0------------------------|
A|--------------------------------0-----------3---------------------------------|
E|------------------------------------------------------------------------------|

The Way You Used To Do Tab | Queens of the Stone Age

  

Tuning – D G D G B d (Open G)

[Intro]

d|------------------------------|
B|------------------------------|
G|------------------------------|
D|------------------------------| (Guitar 1)
G|---0---0-0-0---0--0---0-0-0---|
D|------------------------------|
 Lees verder... »

Despacito Tab – Luis Fonsi

  
[Intro]
e|-------2---------2-------2---------2-------------------|
B|---------3---------3--------3---------3----------------|
G|----4---------4--------4---------4---------------------|
D|-------------------------------------------------------|
A|-------------------------------------------------------|
E|-------------------------------------------------------|
 Lees verder... »

One More Love Song Tab | Mac DeMarco

  
Waarschijnlijk gebruikt hij een touch-wah filter/pedaal.

[Intro]
e|---------------------------------------------------------------------------|
B|---------------------------------------------------------------------------|
G|---12--------------9-------------------------------------------------------|
D|------14-12-10-12----10-9---------------------------------------12-10-12-14|
A|--------------------------12-10--------10-12-------10------10--------------|
E|--------------------------------12--12----------12------12-----------------|
 Lees verder... »
Pagina 1 van 2412345...Laatste »