‘Gitaartabs’ Categorie

Pagina 1 van 2412345...Laatste »

Love Song 16 intro tab | Jack Johnson

  

[Intro]
e|-------------0-|----4---------|---------------|------------|
B|---------------|-----------4--|---0---0-----0-|----4----0--|
G|-------------1-|----1---------|-----1---------|---------1--|
D|-------------2-|-2--2------1--|-2-----------1-|----1----2--|x2
A|-----2---2-4---|--------2--2--|----------0--2-|-2--2-------|
E|---4---4-------|--------------|---------------|-------0----|

Same Soul tab | PVRIS

  

VERSE:

 

Where did your body go...
guitar 1:
E||----2-------0-------5--------|
B||------3-------3-------7------|
G||-----------------------------|x4
D||-----------------------------|
A||-----------------------------|
E||-3~------0~------7~----------|
 Lees verder... »

One Foot solo tab | Walk the Moon

  

[Solo]
e|------8--10---12-10-8-|-----8--10---12-10-8---------------------------------|
B|--10------------------|--8--------------------------------------------------|
G|----------------------|-----------------------------------------------------|
D|----------------------|-----------------------------------------------------|
A|----------------------|-----------------------------------------------------|
E|----------------------|-----------------------------------------------------|

Leftovers tab | Dennis Lloyd

  
[Riff die je het hele liedje hoort]
    Em          G                 Am          C        D
e|--------0--7--------3--5--3--0--------0--8-----------------2------------------|
B|-----0-----7-----3-----------------------8--------1-----------3---------------|
G|--------------0--------------------2-----------0--------2---------------------|
D|--2--------------------------------------------------0------------------------|
A|--------------------------------0-----------3---------------------------------|
E|------------------------------------------------------------------------------|

The Way You Used To Do Tab | Queens of the Stone Age

  

Tuning – D G D G B d (Open G)

[Intro]

d|------------------------------|
B|------------------------------|
G|------------------------------|
D|------------------------------| (Guitar 1)
G|---0---0-0-0---0--0---0-0-0---|
D|------------------------------|
 Lees verder... »
Pagina 1 van 2412345...Laatste »