‘Gemiddeld’ Categorie

Pagina 3 van 1112345...Laatste »

Catch me

  

e|--------------------------------------------|
B|----9---9---9---9----9---9---9---9----------|
G|----9---9---9---9----9---9---9---9----------|
D|--7---7---7---7-----------------------------| 2x
A|-------------------7---7---7---7------------|
E|--------------------------------------------|

e|---------------------------------------------------------------|
B|----5---5---5---5---4---4---4---4---0---0---0---0---0---0---0--|
G|----6---6---6---6---4---4---4---4---6---6---6---6---8---8---8--|
D|----6---6---6---6---4---4---4---4---7---7---7---7---9---9---9--|
A|--4---4---4---4------------------------------------------------|
E|------------------4---4---4---4---5---5---5---5---7---7---7---7|

Lees verder… »


Sweet home alabama

  

|------------------|------------------|------------------|
|-------3----------|--------3---------|-----------3------|
|----------2-------|-----------0------|-----------0------|
|-0--0----------0--|------------------|-----------0------|
|------------------|-3p0h3--------3---|-----------2------|
|------------------|------------------|--3p0h3----3------|

|------------------|------------------|------------------|
|------------------|-------3----------|---------3--------|
|-------------2p0--|----------2-------|------------0-----|
|-----0h2p2--------|-0--0--------0----|------------------|
|-0h2-------2------|------------------|--3p0h3--------3--|
|------------------|------------------|------------------|

Lees verder… »

Sweet goodbyes

  

Capo op 4

Intro:

Em D/F# G C Em D C
e |---0---0------------------------------7---7---5---5---3---3---3---3----|
B |---0---0---3---3---3--------3--3------8---8---7---7---5---5---5---5----|
G |-----------2---2---0--------0--0---------------------------------------|
D |-----------------------------------------------------------------------|
A |----------------------0-2-3---3---3/7---7---5---5---3---3---3---3------|
E |-0---0---2---2---3-----------------------------------------------------|


Couplet:

Em D/F# G C Em D C
e |---0---0-----------------------------0---0-----------------------------|
B |---0---0---3---3---3--------3--3-----0---0-----3----3-----3----3-------|
G |-----------2---2---0--------0--0---------------0----0-----0----0-------|
D |-----------------------------------------------------------------------|
A |----------------------0-2-3---3--------------5---5------3----3---------|
E |-0---0---2---2---3-----------------0---0-------------------------------|

Lees verder… »

Baantjer (Intro)

  
e|-------5--7--8-------5--7--8--------5--7--8--7--5------
B|----5-------------6---------------7--------------------
G|--------------------------------8----------------------
D|-------------------------------------------------------
A|-------------------------------------------------------
E|-------------------------------------------------------

e|------10--12--13--12--15--13--12--11--12---------------
B|--10---------------------------------------------------
G|-------------------------------------------------------
D|-------------------------------------------------------
A|-------------------------------------------------------
E|-------------------------------------------------------

Daydreamer

  
1X 3X 1X 3X 
----------------------------------
---6---------6-------7--------7---
----5---------5-------6---------6-
----------------------------------
-0-------0-0-------0-------0-0----
----------------------------------
Pagina 3 van 1112345...Laatste »