‘Gitaartabs’ Categorie

Pagina 3 van 2412345...Laatste »

Dashing Through The Snow TAB + Video

  

e|-----0-------------|---------0------------|-----------1---0------------------|
B|-------3--1--------|-------------3--1-----|-------------------3----0-------0-|
G|---0----------0----|---0--0-------------2-|---2---2--------------------------|
D|-------------------|----------------------|----------------------------------|
A|-------------------|----------------------|----------------------------------|
E|-------------------|----------------------|----------------------------------|

e|--3--3---1---------0--|------------0-------------|---------------0-----------|
B|--------------3-------|---------------3---1------|------------------3---1----|
G|----------------------|---0-----0-------------0--|-----0-----0-------------2-|
D|----------------------|--------------------------|---------------------------|
A|----------------------|--------------------------|---------------------------|
E|----------------------|--------------------------|---------------------------|

e|-----1---0------3--3--3--3--5--3----1------------3-|
B|------------3--------------------------3----1------|
G|-2-------------------------------------------------|
D|---------------------------------------------------|
A|---------------------------------------------------|
E|---------------------------------------------------|

Rudolf The Red Nosed Reindeer TAB

  

|------------------------------------------------------------------------|
|--------1-----------------1-0---------0---------------------------------|
|0-2-0-------2-0-0-2-0-2-0-------0-------2-0---0-2-0-2-0-2---------------|
|------2-----------------------3---3-0---------------------2-------------|
|------------------------------------------------------------------------|
|------------------------------------------------------------------------|
 Lees verder... »

Closer | The Chainsmokers TAB

  

[Verse]

e|----------------|------------------|-------------------|-----------|
B|----3-----3-3---|-3-0-0------------|-------------3-3---|-----------|
G|----------------|-------2-2-0------|-------------------|-----------|
D|----------------|------------------|-------------------|-----------|
A|----------------|------------------|-------------------|-----------|
E|----------------|------------------|-------------------|-----------|
      Hey,  I was doing fine before I met you, Drink too 
 Lees verder... »

Zombie TAB

  

INTRO:
Het slagje van het intro moet je uitproberen door ernaar te luisteren.
Clean:
e Cmaj7 G D
e-|-0-----0-----3-----2
B-|-0-----0-----0-----3
G-|-0-----0-----0-----2
D-|-2-----2-----0-----0
A-|-2-----3-----2-----0
E-|-0-----------3-----2
D kun je ook als x00232 spelen.
Lees verder... »

Day tripper TAB

  

 

This is the main riff:
e------------------------------
b------------------------------
g------------------------------
d-------------2-0---4----0-2----
a----------2------2----2--------
e--0--3-4-----------------------
 Lees verder... »
Pagina 3 van 2412345...Laatste »