Chop Suey! | System Of A Down

  



The asterisks (*) mean that the measures are repeated. 

The tuning for this song is as follows:
D  A  F  C  G  C

|------------------------|-----------------------|
|------------------------|-----------------------|
|5--5-5-5-5--5-5-5-5--5-5|5/7---7-7-7-7--7-7-7-7-|
|7--7-7-7-7--7-7-7-7--7-7|7/9---9-9-9-9--9-9-9-9-|
|0--0-0-0-0--0-0-0-0--0-0|0-0---0-0-0-0--0-0-0-0-|
|------------------------|-----------------------| 
Riff 1

|--------------------|-------------------|
|--------------------|-------------------|
|4--4-4-4-4--4-4-4-4-|2--2-2-2-2--2-2-2-2|
|5--5-5-5-5--5-5-5-5-|3--3-3-3-3--3-3-3-3|
|0--0-0-0-0--0-0-0-0-|0--0-0-0-0--0-0-0-0|
|--------------------|-------------------|


|------------|-----------|-----------|-----------|
|------------|-----------|-----------|-----------|
|-5---5---5--|7---7---7--|4---4---4--|2---2---2--|
|---7---7---7|--9---9---9|--5---5---5|--3---3---3|
|------------|-----------|-----------|-----------|
|------------|-----------|-----------|-----------|
Riff 2


|-/8--|/10-|-7-|-12-|-12-|-13-|-10-|-13-|
|-/10-|/12-|-8-|-13-|-13-|-15-|-12-|-15-|
|-----|----|---|----|----|----|----|----|
|-----|----|---|----|----|----|----|----|
|-----|----|---|----|----|----|----|----|
|-----|----|---|----|----|----|----|----|
Riff 3 strum each chord 16 times every measure


|----------|-------------|---------------------------------|
|----------|-------------|---------------------------------|
|*---------|------------*|*--------------------------------|
|*---------|------------*|*--------------------------------|
|-7h8--6h7-|-9h10--11h12-|---------------------------------|
|-7h8--6h7-|-9h10--11h12-|-7-7-7-7-7-7-7-7-6-6-6-6-6-6-6-6-|
Riff 4   play each hammer-on 4 times.  (this riff is played

----------------------------------------|
----------------------------------------|
---------------------------------------*|
---------------------------------------*|
----------------------------------------|
9-9-9-9-9-9-9-9-12-12-12-12-12-12-12-12-|
right before the first verse)


|-----------------------|-------------------------|
|-----------------------|-------------------------|
|*----------------------|------------------------*|
|*----------------------|------------------------*|
|-7h8---7h8-7h8-7h8-7h8-|--6h7---6h7-6h7-6h7-6h7--|
|-7h8---7h8-7h8-7h8-7h8-|--6h7---6h7-6h7-6h7-6h7--|
Riff 5   played during the verses  (repeat as necessary)

|--------|-------|-------|--------|
|--------|-------|-------|--------|
|*-2-----|-------|-5-----|-------*|
|*-2-----|-3-----|-5-----|-3-----*|
|--0-----|-3-----|-3-----|-3------|
|--------|-3-----|-------|-3------|
Riff 6
"...forsaken me, in your eyes forsaken me, in your thoughts..."

Riff 6 is played as the outro. Repeat until song ends.

 


Plaats een reactie