Feel So Close | Calvin Harris

  




Verse:
Am                             Em
I feel so close to you right now
It's a force field
G                            C
I wear my heart upon my sleeve,
like a big deal 
Am                        Em
Your love pours down on me,
                            G
surround me like a waterfall
                                    C
And there's no stopping us right now
Am                              Em
I feel so close to you right now

Main Riff: 
e-------------------------------------------------| 
B--1-1-1-1-0-0-0-0--0-0-0-0-----------------------| 
G-0-0-0-0-0-0-0-0------------0-0-0-0--------------| 
D------------------2-2-2-2------------------------| 
A---------------------------3-3-3-3---------------| 
E-------------------------------------------------|

Am                              Em
I feel so close to you right now
It's a force field
G                            C
I wear my heart upon my sleeve,
like a big deal
Am                       Em
Your love pours down on me,
                           G
surround me like a waterfall
                                   C
And there's no stopping us right now
Am                             Em
I feel so close to you right now

Main Riff: 
e-------------------------------------------------| 
B--1-1-1-1-0-0-0-0--0-0-0-0-----------------------| 
G-0-0-0-0-0-0-0-0------------0-0-0-0--------------| 
D------------------2-2-2-2------------------------| 
A---------------------------3-3-3-3---------------| 
E-------------------------------------------------|
G                                  C
And there's no stopping us right now
G                                  C
And there's no stopping us right now
G                                  C
And there's no stopping us right now
Am                            Em
I feel so close to you right now...

Plaats een reactie