Killing In The Name Of | Rage Against The Machine TAB

(Part 1)

E|------------------------------------------|
B|-3-----3-----3-----3----------------------|
G|-2-----2-----2-----2----------------------|
D|-0-----0-----0-----0----------------------|
A|-0-----0-----0-----0----------------------|
D|-0-----0-----0-----0----------------------|



E|----------------------------------------------------|
B|----------------------------------------------------|
G|-8~~------------------------------------------------|
D|----------------------------------------------------|
A|----------------------------------------------------|
D|----------------------------------------------------|


(Part 2 - 2x)

E|----------------------------------------------------|
B|----------------------------------------------------|
G|----------------11-12------------------11-12--------|
D|----------11-12------------------11-12--------------|
A|----------------------------------------------------|
D|-0--0--0----------------0--0--0---------------------|


E|----------------------------------------------------|
B|----------------------------------------------------|
G|----------------11-12------------------12br---------|
D|----------11-12------------------11-12--------------|
A|----------------------------------------------------|
D|-0--0--0----------------0--0--0---------------------|


(Part 3)

E|----------------------------------------------------|
B|----------------------------------------------------|
G|----------8--8--8-----------8--8--8-----------8--8--|
D|----------------------------------------------------|
A|----------6--6--6-----------6--6--6-----------6--6--|
D|-0--0--0-----------0--0--0-----------0--0--0--------|


E|----------------------------------------------------|
B|----------------------------------------------------|
G|-8-----------8--------------------------------------|
D|----------------------------------------------------|
A|-6-----------6--------------------------------------|
D|----0--0--0-----------------------------------------|


Killing in the name of!

(Part 4)

E|----------------------------------------------------|
B|----------------------------------------------------|
G|----------------------------------------------------| (4x)
D|---------------3h4----------------------------------|
A|----3h5-------------5--0--2/3--2--------------------|
D|-0-------x--x----------0--2/3--2--------------------|


   P.M.       .  .    .  .  .    .

E|----------------------------------------------------|
B|----------------------------------------------------|
G|----------------------------------------------------|  (8x)
D|---------------3h4----------------------------------|
A|----3h5-------------5-----2/3--2--------------------|
D|-0----------x----------0--2/3--2--------------------|


Some of those that work forces
Are the same that burn crosses

Some of those that work forces
Are the same that burn crosses

Some of those that work forces
Are the same that burn crosses

Some of those that work forces
Are the same that burn crosses


E|----------------------------------------------------|
B|----------------------------------------------------|
G|----------------------------------------------------|
D|-----------9------------8------------7--------------|
A|----3h5----------3h5----------3h5----------2/3-2/3-2|
D|-0-------x----0-------x----0-------x----0--2/3-2/3-2|


Killing in the name of

                                         P.M . . . . .

E|----------------------------------------------------|
B|----------------------------------------------------|
G|----------------------------------------------------|
D|-----------9------------8------------7-5-5-5-5-5-5-5|
A|----3h5----------3h5----------3h5------3-3-3-3-3-3-3|
D|-0-------x----0-------x----0-------x----------------|


Killing in the name of



E|----------------------------------------------------|
B|----------------------------------------------------|
G|-7--7-----5-----------------------------------------| (4x)
D|-7--7-----7-----------------------------------------|
A|-5--5-----7-----------------------------------------|
D|----------------------------------------------------|


And now you do what they told ya
And now you do what they told ya
And now you do what they told ya
And now you do what they told ya


E|----------------------------------------------------|
B|----------------------------------------------------|
G|-7--7-x-x-5--x-x-x-x-x-x-x-x-x-x--------------------| (7x)
D|-7--7-x-x-7--x-x-x-x-x-x-x-x-x-x--------------------|
A|-5--5-x-x-7--x-x-x-x-x-x-x-x-x-x--------------------|
D|----------------------------------------------------|


And now you do what they told ya
And now you do what they told ya
And now you do what they told ya
And now you do what they told ya
And now you do what they told ya
And now you do what they told ya
But now you do what they told ya


E|----------------------------------------------------|
B|----------------------------------------------------|
G|-7--7-x-x-5--x-x-7...-------------------------------|
D|-7--7-x-x-7--x-x-7...-------------------------------|
A|-5--5-x-x-7--x-x-5...-------------------------------|
D|----------------------------------------------------|


Well now you do what they told ya


E|----------------------------------------------------|
B|----------------------------------------------------|
G|-7-7-x-x--7-x-x-7-x-x-------------------------------| (8x)
D|-7-7-x-x--7-x-x-7-x-x-------------------------------|
A|-5-5-x-x--5-x-x-5-x-x-------3-----------------------|
D|----------------------3--5--------------------------|


Those who died are justified
For wearing the badge
They're the chosen whites
You justify those that died
By wearing the badge
They're the chosen whites

Those who died are justified
For wearing the badge
They're the chosen whites
You justify those that died
By wearing the badge
They're the chosen whites


   P.M.       .  .    .  .  .    .

E|----------------------------------------------------|
B|----------------------------------------------------|
G|----------------------------------------------------|  (3x)
D|---------------3h4----------------------------------|
A|----3h5-------------5-----2/3--2--------------------|
D|-0----------x----------0--2/3--2--------------------|


Some of those that work forces
Are the same that burn crosses
Some of those that work forces

   P.M.       .  .

E|----------------------------------------------------|
B|--------------------------------6~------------------|
G|--------------------------5-6-7---------------------|
D|---------------3h4--5-6-7---------------------------|
A|----3h5---------------------------------------------|
D|-0----------x---------------------------------------|


Are the same that burn crosses

   P.M.       .  .    .  .  .    .

E|----------------------------------------------------|
B|----------------------------------------------------|
G|----------------------------------------------------|  (4x)
D|---------------3h4----------------------------------|
A|----3h5-------------5-----2/3--2--------------------|
D|-0----------x----------0--2/3--2--------------------|


Some of those that work forces
Are the same that burn crosses
Some of those that work forces
Are the same that burn crosses


E|----------------------------------------------------|
B|----------------------------------------------------|
G|----------------------------------------------------|
D|-----------9------------8------------7--------------|
A|----3h5----------3h5----------3h5----------2/3-2/3-2|
D|-0-------x----0-------x----0-------x----0--2/3-2/3-2|


Killing in the name of


E|----------------------------------------------------|
B|----------------------------------------------------|
G|----------------------------------------------------|
D|-----------9------------8------------7-5-5-5-5-5-5-5|
A|----3h5----------3h5----------3h5------3-3-3-3-3-3-3|
D|-0-------x----0-------x----0-------x----------------|


Killing in the name of


E|----------------------------------------------------|
B|----------------------------------------------------|
G|-7--7-----5-----------------------------------------|  (4x)
D|-7--7-----7-----------------------------------------|
A|-5--5-----7-----------------------------------------|
D|----------------------------------------------------|


And now you do what they told ya
And now you do what they told ya
And now you do what they told ya
And now you do what they told ya


E|----------------------------------------------------|
B|----------------------------------------------------|
G|-7--7-x-x-5--x-x-x-x-x-x-x-x-x-x--------------------|  (7x)
D|-7--7-x-x-7--x-x-x-x-x-x-x-x-x-x--------------------|
A|-5--5-x-x-7--x-x-x-x-x-x-x-x-x-x--------------------|
D|----------------------------------------------------|


And now you do what they told ya
(Now you're under control)

And now you do what they told ya
(Now you're under control)

And now you do what they told ya
(Now you're under control)

And now you do what they told ya
(Now you're under control)

And now you do what they told ya
(Nnow you're under control)

And now you do what they told ya
(Now you're under control)

And now you do what they told ya
(Now you're under control)


E|----------------------------------------------------|
B|----------------------------------------------------|
G|-7--7-x-x-5--x-x-7...-------------------------------|
D|-7--7-x-x-7--x-x-7...-------------------------------|
A|-5--5-x-x-7--x-x-5...-------------------------------|
D|----------------------------------------------------|


And now you do what they told ya



E|----------------------------------------------------|
B|----------------------------------------------------|
G|-7-7-x-x--7-x-x-7-x-x-------------------------------| (8x)
D|-7-7-x-x--7-x-x-7-x-x-------------------------------|
A|-5-5-x-x--5-x-x-5-x-x-------3-----------------------|
D|----------------------3--5--------------------------|


Those who died are justified
For wearing the badge
They're the chosen whites
You justify those that died
By wearing the badge
They're the chosen whites

Those who died are justified
For wearing the badge
They're the chosen whites
You justify those that died
By wearing the badge
They're the chosen whites

Come on

Solo:
   +  -   +  -   +  -   +  -   +  -   +  -   +

E|----------------------------------------------------|
B|-13...--10...---------------------------------------|
G|---------------12...--10...----------------12/14...~|
D|-----------------------------12...--10...-----------|
A|----------------------------------------------------|
D|----------------------------------------------------|


   +  -   +  -   +  -   +  -   +  -   +  -   +

E|----------------------------------------------------|
B|-13...--10...---------------------------------------|
G|---------------12...--10...-------------------------|
D|-----------------------------12...--10...--10/12...~|
A|----------------------------------------------------|
D|----------------------------------------------------|


   -     +           -     +

E|----------------------------------------------------|
B|-10h13p10h13p...\-/10h13p10h13p...\-----------------|
G|----------------------------------------------------|
D|----------------------------------------------------|
A|----------------------------------------------------|
D|----------------------------------------------------|


    -     +            - +

E|----------------------------------------------------|
B|----------------------------------------------------|
G|----------------------------------------------------|
D|----------------------------------------------------|
A|-/10h12p10h12p...\-/10h12p10h12\--------------------|
D|----------------------------------------------------|


   -  +    -  +    -  +

E|----------------------------------------------------|
B|-/15~~---/17~~--------------------------------------|
G|-----------------/13~~------------------------------|
D|----------------------------------------------------|
A|----------------------------------------------------|
D|----------------------------------------------------|


E|----------------------------------------------------|
B|----------------------------------------------------|
G|-7...--9...--10...--12...--14...--15...--17...------|
D|----------------------------------------------------|
A|-5...--7...--8-...--10...--12...--13...--15...------|
D|----------------------------------------------------|


Fuck you, I won't do what they tell me
Fuck you, I won't do what they tell me
Fuck you, I won't do what they tell me
Fuck you, I won't do what they tell me
Fuck you, I won't do what they tell me
Fuck you, I won't do what they tell me
Fuck you, I won't do what they tell me


E|----------------------------------------------------|
B|----------------------------------------------------|
G|-/19...\--/19...\--/19...\--/19...\-----------------|
D|----------------------------------------------------|
A|-/17...\--/17...\--/17...\--/17...\-----------------|
D|----------------------------------------------------|


Fuck you, I won't do what they tell me



E|----------------------------------------------------|
A|----------------------------------------------------|
D|-7-7-x-x--7-x-x-7-x-x-------------------------------| (8x)
G|-7-7-x-x--7-x-x-7-x-x-------------------------------|
B|-5-5-x-x--5-x-x-5-x-x-------3-----------------------|
D|----------------------3--5--------------------------|


Fuck you, I won't do what they tell me
Fuck you, I won't do what they tell me
Fuck you, I won't do what they tell me
Fuck you, I won't do what they tell me
Fuck you, I won't do what they tell me
Fuck you, I won't do what they tell me
Fuck you, I won't do what they tell me
Fuck you, I won't do what they tell me

Final:


E|----------------------------------------------------|
B|-10-10------10-10-10-10------10-10-10-10------------|
G|-10-10------10-10-10-10------10-10-10-10------------|  (4x)
D|-10-10------10-10-10-10------10-10-10-10------------|
A|-------x-12-------------x-12-------------x-x--------|
D|-------x-12-------------x-12-------------x-x--------|


Motherfucker


E|----------------------------------------------------|
B|----------------------------------------------------|
G|-7...------------8--8--8~~\-------------------------|
D|-7...-----------------------------------------------|
A|-5...------------6--6--6~~\-------------------------|
D|--------0--0--0-------------------------------------|
Meer leuke liedjes

Laat een reactie achter

Je e-mailadres wordt niet gepubliceerd.