Kissing Strangers Tab | Dnce

  

[Main theme]
e|---------------------------------------------------------------------------|
B|---------------------------------------------------------------------------|
G|---------------------------------------------------------------------------|
D|--------3--4--5----------------------1-2-3--1-2-3-0------------------------|
A|-----------------5---3---1-2-3------------------------3-4-5-1--------------|
E|----3--------------------------3---1---------------------------------------|

e|---------------------------------------------------------------------------|
B|---------------------------------------------------------------------------|
G|---------------------------------------------------------------------------|
D|--------3--4--5----------------------1-2-3--1-2-3-0------------------------|
A|-----------------5---3---1-2-3------------------------3-4-5-1--------------|
E|----3--------------------------3---1---------------------------------------|

 


Plaats een reactie