Dat ik je mis

  

 

 

Capo op 2

INTRO
Em G/F G
E|--------------------------------------------------|
B|------------------------------------0-------------|
G|-----0----0----0----0------0----0---0-------------|
D|---2----2----0----0------0----0-------------------|
A|--------------------------------------------------|
E|-0----0----2----2------3----3---------------------|
________________________________________________________________________
COUPLET 1
Em G/F G
E|---------------------------------------------|
B|---------------------------------------------|
G|-----0----0----0----0------0----0----0----0--|
D|---2----2----0----0------0----0----0----0----| 2x
A|---------------------------------------------|
E|-0----0----2----2------3----3----3----3------|
Je kust me, Je sust me, Omhelst me, gerust me
Je vangt me,verlangt me, oneindig ontbangt me
Je roept me, je hoort me, je redt en verstoort me
Gelooft me, berooft me, verstikt en verdooft me
Am G C
E|---------------------------------------------|
B|---------------------------------------------|
G|-----2----2----0----0----0----0----0----0----|
D|---2----2----0----0----2----2----2----2------|
A|-0----0----2----2----3----3----3----3--------|
E|---------------------------------------------|
Je ademt en leeft me, siddert en beeft me
Vertrouwt me, beschouwt me als mens en weerhoudt me
Em G/F G
E|---------------------------------------------|
B|---------------------------------------------|
G|-----0----0----0----0----0----0----0----0----|
D|---2----2----0----0----0----0----0----0------|
A|---------------------------------------------|
E|-0----0----2----2----3----3----3----3--------|
Van bozige dromen, die op komen dagen
De eenzame vragen van eindig geluk
Em G/F G
E|---------------------------------------------|
B|---------------------------------------------|
G|-----0----0----0----0----0----0----0----0----|
D|---2----2----0----0----0----0----0----0------|
A|---------------------------------------------|
E|-0----0----2----2----3----3----3----3--------|
________________________________________________________________________

Volgende pagina ->


Pages: 1 2

2 Reacties op “Dat ik je mis”

Plaats een reactie