Nothing else matters | Metallica


E-------0-----|-------0-----|-------0-----|-------0---7-|
B-----0---0---|-----0---0---|-----0---0---|-----0---0---|
G---0-------0-|---0-------0-|---0-------0-|---0---------|
D-------------|-------------|-------------|-------------|
A-------------|-------------|-------------|-------------|
E-0-----------|-0-----------|-0-----------|-0-----------|

 E-7-----------7^0---------|---------7---8---7^8^7\5-7---5\2^0---|
 B-----0-----------0-------|---------0---0-----------0-----------|
 G---------0-----------0---|-----0-------------------------------|
 D-------------------------|-------------------------------------|
 A-------------------------|-------------------------------------|
 E-0-----------------------|-0-----------------------------------|



E-------------2^0---------|-------------0---0---0---|
B-5-------5-------5-------|---------5-------5---5---|
G-----5---------------5---|-----5-----------5---5---|
D-------------------------|-------------------------|
A-0-----------------------|-0---------------0---2---|
E-------------------------|-------------------------|

 E-0-----------3^0-----0---|-0-----------0^5^0--------|
 B-5-------5-------5---5---|-7-------7---------7^0-0^5|
 G-5-----5---5-------5-5---|-7-----7---7--------------|
 D-------------------------|--------------------------|
 A-3---3---------------3---|-5---5--------------------|
 E-------------------------|--------------------------|

 E-------12----|-------0-----|-------0-----|-------0-----|
 B-----12--0---|-----0---0---|-----0---0---|-----0---0---|
 G---12------0-|---0-------0-|---0-------0-|---0-------0-|
 D-------------|-------------|-------------|-------------|
 A-------------|-------------|-------------|-------------|
 E-0-----------|-0-----------|-0-----------|-0-----------|

 E-------------7-----------|-------------|-------------7-----------|
 B-------------8-----------|-----7-----5-|-------------8-----------|
 G-----------9-------------|-----7-----5-|-----------9-------------|
 D---------9---------------|---7-----5---|---------9---------------|
 A-------7-----------------|-5-----3-----|-------7-----------------|
 E-0-----------------------|-------------|-0-----------------------|

 E-------------|-------------7-----------|-----5-----------3-------|
 B-----7-----5-|-------------8-----------|-------7-----------5-----|
 G-----7-----5-|---------9---------------|---------7-----------5---|
 D---7-----5---|-----------9-------------|-----7-----------5-------|
 A-5-----3-----|-------7-----------------|-5-----------3-----------|
 E-------------|-0-----------------------|-------------------------|

 E-----3-----------2-------|-------0-----|-------0-----|
 B-------3-----------4-----|-----0---0---|-----0---0---|
 G---------4-----------2---|---0-------0-|---0-------0-|
 D-----5-----------4-------|-------------|-------------|
 A-------------2-----------|-------------|-------------|
 E-3-----------------------|-0-----------|-0-----------|

6 Reacties op “Nothing else matters | Metallica”

  • Marc:

    Ik ben beginnend speler en vraag me af hoe ik de ^ lezen en spelen tussen de getallen ?

  • Jeffrey (Webmaster):

    Beste Marc, Een ^ teken staat voor een Hammer on. Oftewel je houdt je vinger op het laatst gespeelde vakje en hamert met je vinger op het volgende vakje.

  • Anne:

    Hoe interpreteer is de’/’ in 5\2^0. Ik snap dat 2^0 inhoudt dat je de 2e fret speelt en deze dan los laat, alleen de / begrijp ik niet, iemand die dit weet?

  • Jeffrey (Webmaster):

    Een backslash is slide down. Dat betekent dat je vakje 5 aanslaat en vanaf vakje 5 doorglijdt naar vakje 2. kijk voor meer info ook op: http://leergitaar.nl/lessen/gitaar-tabs-leren-spelen/pull-off-hammer-on-vibrato/

  • Denise:

    Jeetje, mijn handen zijn te klein! Ik kan echt niet fret 5 en tegelijkertijd fret 2 induwen, wat nu?? Ik wil deze zooo graag kunnen spelen!

  • Jeffrey (Webmaster):

    Je kunt je wijsvinger op 2 zetten en je pink voor vakje 5 gebruiken. Mocht ook dat niet lukken dan kun je ook na vakje 2 gespeeld te hebben je hand iets opschuiven en dan alsnog fret 5 pakken. Suc6

Plaats een reactie