Sweet goodbyes

Capo op 4

Intro:

Em D/F# G C Em D C
e |---0---0------------------------------7---7---5---5---3---3---3---3----|
B |---0---0---3---3---3--------3--3------8---8---7---7---5---5---5---5----|
G |-----------2---2---0--------0--0---------------------------------------|
D |-----------------------------------------------------------------------|
A |----------------------0-2-3---3---3/7---7---5---5---3---3---3---3------|
E |-0---0---2---2---3-----------------------------------------------------|


Couplet:

Em D/F# G C Em D C
e |---0---0-----------------------------0---0-----------------------------|
B |---0---0---3---3---3--------3--3-----0---0-----3----3-----3----3-------|
G |-----------2---2---0--------0--0---------------0----0-----0----0-------|
D |-----------------------------------------------------------------------|
A |----------------------0-2-3---3--------------5---5------3----3---------|
E |-0---0---2---2---3-----------------0---0-------------------------------|

Can't sleep, cause everything changing, you don't want to leave things behind.
Can't breathe there's too many things, going on, going wrong in your life.

Pre-chorus:
C Cmaj7 D
e |------0---0---0---0---0---0---0---0---0---0---0---0---0---0-0----------|
B |------1---1---0---0---1---1---0---0---1---1---0---0---1---1-3----------|
G |------0---0---0---0---0---0---0---0---0---0---0---0---0---0-0----------|
D |----------------------------------------------------------------------|
A |----3---3---3---3---3---3---3---3---3---3---3---3---3---3---5----------|
E |-----------------------------------------------------------------------|
Tears in your eyes sweet good bye's

Chorus:
D C D Em
e |----0------------------------------------------------------------------|
B |----3-------------1---1---3---3---5---5--------------------------------|
G |----2-------------0---0---0---0---0---0--------------------------------|
D |----0------------------------------------------------------------------|
A |----------------3---3---5---5---7---7----------------------------------|
E |-----------------------------------------------------------------------|
I know how you feel right now

G/B c d g D/F#
e |-----------------------------------------------------------------------|
B |----0---0---1---1---3---3---0---0--------------------------------------|
G |----0---0---0---0---0---0---0---0---2---2------------------------------|
D |------------------------------------0---0------------------------------|
A |---2--2---3---3---5---5------------------------------------------------|
E |--------------------------3---3---2---2--------------------------------|
Losing dreams you've come to care about


e |-----------------------------------------------------------------------|
B |-----------------1---1---3---3---0---0---------------------------------|
G |-------2---2-----0---0---0---0---0---0---------------------------------|
D |-------0---0-----------------------------------------------------------|
A |---------------3---3---5---5-------------------------------------------|
E |-----2---2---------------------3---3-----------------------------------|
I know what you need right now

e |-----------------------------------------------------------------------|
B |-----------------1---1---1---1---3---3---3---3-------------------------|
G |--------2---2----0---0---0---0---0---0---0---0-------------------------|
D |--------0---0----------------------------------------------------------|
A |---------------3---3---3---3---5---5---5---5---------------------------|
E |------2---2------------------------------------------------------------|
You need to come on home so I can hold you tight

Em D/F# G C Em D C
e |---0---0------------------------------7---7---5---5---3---3---3---3---|
B |---0---0---3---3---3--------3--3------8---8---7---7---5---5---5---5---|
G |-----------2---2---0--------0--0--------------------------------------|
D |----------------------------------------------------------------------|
A |----------------------0-2-3-------3/7---7---5---5---3---3---3---3-----|
E |-0---0---2---2---3----------------------------------------------------|
Get you through the night, I'll get you trough the night
Meer leuke liedjes
1 reactie
  1. Ludia zegt

    Geweldig, Tnx voor alle gratis muziek. Erg dankbaar persoon hier!

Laat een reactie achter

Je e-mailadres wordt niet gepubliceerd.