Artiest: ‘Cranberries’

Zombie TAB

  

INTRO:
Het slagje van het intro moet je uitproberen door ernaar te luisteren.
Clean:
e Cmaj7 G D
e-|-0-----0-----3-----2
B-|-0-----0-----0-----3
G-|-0-----0-----0-----2
D-|-2-----2-----0-----0
A-|-2-----3-----2-----0
E-|-0-----------3-----2
D kun je ook als x00232 spelen.
Lees verder... »

Zombie

  

Em Cmaj7 
e -0---0---0---0-0---0-0-----0-0---|-0---0---0---0-0---0-0---0-0-0---|
B -0---0---0---0-0---0-0-----0-0---|-0---0---0---0-0---0-0---0-0-0-0-|
G -0---0---0---0-0---0-0-----0-0-0-|-0---0---0---0-0---0-0---0-0-0-0-|
D -2---2---2---2-2---2-2-----2-2-0-|-2---2---2---2-2---2-2---2-2-2-0-|
A -2-------2---2-------2-----2-2-0-|-3-------3-----------3-----------|
E -0-------0---0-------0-----0-0---|---------------------------------|

G6 D6sus
e -0---0---0---0-0---0-0-----0-0---|-0---0---0---0-0---0-0---0-0-0-0-|
B -0---0---0---0-0---0-0-----0-0---|-0---0---0---0-0---0-0---0-0-0-0-|
G -0---0---0---0-0---0-0-----0-0-0-|-0---0---0---0-0---0-0---0-0-0-0-|
D -0---0---0---0-0---0-0-----0-0-0-|-0---0---0---0-0---0-0---0-0-0-0-|
A -2-------2-----------2-------2-0-|-0-------0-----------0---0-0-0-0-|
E -3-------3-----------3-------3---|-2-------2-----------2---2-2-2-2-|