Artiest: ‘Metallica’

Nothing else matters

  

eerste paar zinnen aftokkelen en bij TRUST I SEEK beginnen met de slag zo speel ik hem altijd(2xomlaag,2xomhoog,1xomlaag,1xomhoog)
 
Em                 D   C   Em                    D        C Em
So close no matter how far,couldn’t be much more from the heart
 Em                D   C    G                  D  Em
For everr trusting who we are and nothing else matters
Em                  D    C   Em                         D   C 
Never opened myself this way love desires we live it our ways
Em               D       G          D               Em
All this words I don’t just say and nothing else matters
 
Trust I seek that I find in you every day for us something new
                                                C     A
Open mind for

Nothing else matters | Metallica


E-------0-----|-------0-----|-------0-----|-------0---7-|
B-----0---0---|-----0---0---|-----0---0---|-----0---0---|
G---0-------0-|---0-------0-|---0-------0-|---0---------|
D-------------|-------------|-------------|-------------|
A-------------|-------------|-------------|-------------|
E-0-----------|-0-----------|-0-----------|-0-----------|

 E-7-----------7^0---------|---------7---8---7^8^7\5-7---5\2^0---|
 B-----0-----------0-------|---------0---0-----------0-----------|
 G---------0-----------0---|-----0-------------------------------|
 D-------------------------|-------------------------------------|
 A-------------------------|-------------------------------------|
 E-0-----------------------|-0-----------------------------------|

 Lees verder... »

Hardwired | Metallica TAB

  

[Intro]

e||------------------------------||
B||------------------------------||
G||------------------------------||
D||------------------------------|| x4
A||------------------------------||
E||--0-0-0--0-0-0--0-0-0--0-0-0--||
 Lees verder... »

Fade To Black | Metallica TAB

  

[Intro]

 (Acoustic guitar)
e|------------------------|------------------------|
B|------------------------|------------------------|
G|-------0----------------|-------0----------------|
D|----4-----4-----4-----4-|----4-----4-----4-----4-|
A|-2-----------2-----5----|-0-----------0-----5----|
E|------------------------|------------------------|
 Lees verder... »

Master Of Puppets | Metallica TAB

  

[Intro]

e|--------------------------------|
B|--------------------------------|
G|-9--------7---6---5-------------|
D|-9--------7---6---5-------------|
A|-7--------5---4---3-------------|
E|-0------------------------------|
 Lees verder... »