Artiest: ‘Robin Schulz’

Ok | Robin Schulz

  

Gm Eb Bb F
[Intro]
Gm Eb Bb F

[Verse 1]
          Gm
I really need you
           Eb
I really need your love right now Lees verder... »

Show Me Love | Robin Schulz TAB

  

Intro: 1x

e|---------------------------------------------------------------------------|
B|---------------------------------------------------------------------------|
G|---7---7---7---7---7---7---2---2---4---4---4---4---4---4---2---2-----------|
D|---------------------------------------------------------------------------|
A|---------------------------------------------------------------------------|
E|-7---7---7---7---7---7---2---2---3---3---3---3---3---3---2---2-------------|
 Lees verder... »

Sugar | Robin Schulz

  

Capo op 1

riff:

---------------------------------------------------------
---1---3p1---1--------0----------------------------------
-2---2-----2------0-2---2-0------------------------------
---------------2------------2----2------4----------------
-------------------------------3---3-5----5-0-0--3/2--0--
---------------------------------------------------------

Am Em C D Am 4x

       Am             Em
She got  cherry lips

Angel eyes
C            D          Am
She knows exactly how to tantalize Lees verder... »