Artiest: ‘The Chainsmokers’

Pagina 1 van 212

Closer | The Chainsmokers

  

Capo op 1

C D Em
[Intro]

C D Em D C D Em D


[Verse 1: Andrew Taggart]

C         D        Em
Hey, I was doing just fine just before I met you
  D        C                              D    Em  D
I drank too much and that's an issue but I'm okay Lees verder... »

Bloodstream | The Chainsmokers

  

C#m E A
[Verse 1]

C#m                              E
I've been drunk three times this week
C#m                     E
Spent all my money on a fleeting moment Lees verder... »

The One | The Chainsmokers

  

Bm Bm7 D A
[Intro]
Bm G D x4

[Verse 1]
      Bm       G
You know, I'm sorry
         D
I won't make it to your party Lees verder... »

Somthing Just Like This | The Chainsmokers

  
Bm
Guitar Riff 

E[----5-----------5--------------5------------5---------5--------------5----]
B[-3-----3----3-------3---3-3-3----3-3-3----3----3---3-----3----3-3-3-----3-]
G[--------------------------------------------------------------------------]
D[--------------------------------------------------------------------------]
A[--------------------------------------------------------------------------]
E[--------------------------------------------------------------------------]


[Verse 1] 
                            G  
I've been reading books of old
    A               Bm
The legends and the myths Lees verder... »

Paris | The Chainsmokers

  
      F    Am   G    Em7
e|---------0----3---------|
B|----1----1----3----3----|
G|----2----2----0----0----|
D|----3----2----0----2----|
A|----3----0----2----2----|
E|------------------------|

Capo op 2

[Intro]
F  Am  G  Em7


[Verse 1]
                   F
We were staying in Paris Lees verder... »
Pagina 1 van 212