Mannish boy

 
STANDARD TUNING
here is one way you can play it
------------------------------|
------------------------------|
------7-----5-----------------|
--7---7--7--5--7--------------|
--7---5--7--3--7--------------|
--5---5--5-----5--------------|

it can also be played like this
------------------------------|
------------------------------|
-------7-----5h6--------------|
----7--7--7--5h6--------------|
----0-----0-------------------|
------------------------------|
Meer leuke liedjes

Laat een reactie achter

Je e-mailadres wordt niet gepubliceerd.